PrimaNota.ru - самый крупный в мире бесплатный архив песенных текстов, аккордов, табулатур и нот


Asian Kung-fu Generation - Kaiga Kyoushitsu - бас-таба, видео

Регистрация Запомнить меня
Войти через:  Facebook Google Twitter Vk Yandex Mail.ru

Asian Kung-fu Generation - Kaiga Kyoushitsu - бас-таба, видео

Печатать
Просмотров: 109
Asian Kung-Fu Generation - Kaiga Kyoushitsu
By: Technovirus (http://technovir.us)

Intro
G|---------------------|---------------------|---------------------|
D|---------------------|-0-------------------|---------------10----|
A|-5-------------------|--------------7------|--8---------------8--|
E|---------------------|---------------------|---------------------|

---------------------|-----------------|
---------------------|-----------------|
---------------0-----|-1-1-1-1-1-1-1-1-|
-1------3------------|-----------------|


Intro/Verse [x3]
G|-----------------|-----------------|-----------------|-----------------|
D|-----------------|-----------------|-----------------|-----------------|
A|-5-5-5-5-5-5-5-5-|-5-5-5-5-5-5-5-5-|-8-8-8-8-8-8-8-8-|-----------------|
E|-----------------|-----------------|-----------------|-1-1-1-1-1-1-1-1-|

G|-----------------|-----------------|-----------------|-----------------|
D|-----------------|-----------------|-----------------|-----------------|
A|-----------------|-0-0-0-0-0-0-0-0-|-1-1-1-1-1-1-1-1-|-----------------|
E|-3-3-3-3-3-3-3-3-|-----------------|-----------------|-1-1-1-1-1-1-1-1-|

Chorus [x2]
G|-----------------|-----------------|-----------------|-----------------|
D|-----------------|-----------------|-----------------|-7-7-7-7-7-7-7-7-|
A|-----------------|-----------------|-0-0-0-0-0-0-0-0-|-----------------|
E|-3-3-3-3-3-3-3-3-|-3-3-3-3-3-3-3-3-|-----------------|-----------------|

G|-----------------|-----------------|-----------------|-----------------|
D|-----------------|-----------------|-----------------|-----------------|
A|-1-1-1-1-1-1-1-1-|-1-1-1-1-1-1-1-1-|-----------------|-----------------|
E|-----------------|-----------------|-1-1-1-1-1-1-1-1-|-1-1-1-1-1-1-1-1-|


Post-Chorus
G|------|-----------------|-----------------|-----------------|-----------------|
D|------|-----------------|-----------------|-----------------|-----------------|
A|-REST-|-----------------|-----------------|-----------------|-0-0-0-0-0-0-0-0-|
E|------|-1-1-1-1-1-1-1-1-|-1-1-1-1-1-1-1-1-|-3-3-3-3-3-3-3-3-|-----------------|

-----------------|-----------------|
-----------------|-----------------|
-1-1-1-1-1-1-1-1-|-----------------|
-----------------|-1-1-1-1-1-1-1-1-|

Verse 2 [x2]
G|-----------------|-----------------|-----------------|-----------------|
D|-----------------|-----------------|-----------------|-----------------|
A|-5-5-5-5-5-5-5-5-|-5-5-5-5-5-5-5-5-|-8-8-8-8-8-8-8-8-|-----------------|
E|-----------------|-----------------|-----------------|-1-1-1-1-1-1-1-1-|

G|-----------------|-----------------|-----------------|-----------------|
D|-----------------|-----------------|-----------------|-----------------|
A|-----------------|-0-0-0-0-0-0-0-0-|-1-1-1-1-1-1-1-1-|-----------------|
E|-3-3-3-3-3-3-3-3-|-----------------|-----------------|-1-1-1-1-1-1-1-1-|


Chorus 2
G|-----------------|-----------------|-----------------|-----------------|
D|-----------------|-----------7-7-7-|-----------------|-----------------|
A|-----------------|-0-0-------------|-1-1-----1-1-1-1-|-----------------|
E|-3-3-----3-3-3-3-|-----------------|-----------------|-1-1-----1-1-1-1-|

G|-----------------|-----------------|-----------------|-----------------|
D|-----------------|-----------------|-----------------|-7-7-7-7-7-7-7-7-|
A|-----------------|-----------------|-0-0-0-0-0-0-0-0-|-----------------|
E|-3-3-3-3-3-3-3-3-|-3-3-3-3-3-3-3-3-|-----------------|-----------------|

G|-----------------|-----------------|-----------------|-----------------|
D|-----------------|-----------------|-----------------|-----------------|
A|-1-1-1-1-1-1-1-1-|-1-1-1-1-1-1-1-1-|-----------------|-----------------|
E|-----------------|-----------------|-1-1-1-1-1-1-1-1-|-1-1-1-1-1-1-1-1-|


Solo [x2]
G|-----------------|-----------------|-----------------|-----------------|
D|-----------------|-----------------|-----------------|-----------------|
A|-----------------|-0-0-0-0-0-0-0-0-|-1-1-1-1-1-1-1-1-|-----------------|
E|-3-3-3-3-3-3-3-3-|-----------------|-----------------|-1-1-1-1-1-1-1-1-|

G|-----------------|-----------------|-----------------|-----------------|
D|-----------------|-----------------|-----------------|-3-3-3-3-3-3-3-3-|
A|-----------------|-0-0-0-0-0-0-0-0-|-1-1-1-1-1-1-1-1-|-----------------|
E|-3-3-3-3-3-3-3-3-|-----------------|-----------------|-----------------|


Bridge [x2]
G|-----------------|-----------------|-----------------|-----------------|
D|-----------------|-----------------|-0-0-0-0-0-0-0-0-|-3-3-3-3-3-3-3-3-|
A|-1-1-1-1-1-1-1-1-|-3-3-3-3-3-3-3-3-|-----------------|-----------------|
E|-----------------|-----------------|-----------------|-----------------|

G|-----------------|-----------------|-----------------|-----------------|
D|-----------------|-----------------|-0-0-0-0-0-0-0-0-|-----------------|
A|-1-1-1-1-1-1-1-1-|-3-3-3-3-3-3-3-3-|-----------------|-----------------|
E|-----------------|-----------------|-----------------|-1-1-1-1-1-1-1-1-|


Chorus [x2]
G|-----------------|-----------------|-----------------|-----------------|
D|-----------------|-----------------|-----------------|-7-7-7-7-7-7-7-7-|
A|-----------------|-----------------|-0-0-0-0-0-0-0-0-|-----------------|
E|-3-3-3-3-3-3-3-3-|-3-3-3-3-3-3-3-3-|-----------------|-----------------|

G|-----------------|-----------------|-----------------|-----------------|
D|-----------------|-----------------|-----------------|-----------------|
A|-1-1-1-1-1-1-1-1-|-1-1-1-1-1-1-1-1-|-----------------|-----------------|
E|-----------------|-----------------|-1-1-1-1-1-1-1-1-|-1-1-1-1-1-1-1-1-|


Outro [x2]
G|-----------------|-----------------|-----------------|-----------------|
D|-----------------|-----------------|-----------------|-3-3-3-3-3-3-3-3-|
A|-----------------|-0-0-0-0-0-0-0-0-|-1-1-1-1-1-1-1-1-|-----------------|
E|-3-3-3-3-3-3-3-3-|-----------------|-----------------|-----------------|

G|-----------------|-----------------|-----------------|-----------------|
D|-----------------|-----------------|-----------------|-----------------|
A|-----------------|-0-0-0-0-0-0-0-0-|-1-1-1-1-1-1-1-1-|-----------------|
E|-3-3-3-3-3-3-3-3-|-----------------|-----------------|-1-1-1-1-1-1-1-1-|
			
			Second Time: |-----------------|-----------------|
				     |-----------------|-----------------|
				     |-1---------------|------------3----|
				     |-----------------|---------------1-|
Добавлено: 06.03.2012
Другие материалы по этой песне:

Страница создана 06.03.2012
http://primanota.ru/asian-kung-fu-generation/kaiga-kyoushitsu-chords.htm
Привет, Гость.
Предлагаем пройти революционный курс по гитаре.
Подарок от PrimaNota.Ru, забирай!