PrimaNota.ru - самый крупный в мире бесплатный архив песенных текстов, аккордов, табулатур и нот


Asian Kung-fu Generation - Gokurakuji Heartbreak - бас-таба, видео

Регистрация Запомнить меня
Войти через:  Facebook Google Twitter Vk Yandex Mail.ru

Asian Kung-fu Generation - Gokurakuji Heartbreak - бас-таба, видео

Печатать
Просмотров: 39
Asian Kung-Fu Generation - Gokurakuji Heartbreak

Tabbed by: Ashy (XxThreeCheersxX)
E-mail: burdickash@gmail.com

Tuning: Standard

Intro 
G|---------------|
D|---------------|
A|---0-0-2-2-3-3-|
E|-3-------------|

Chorus I
G|-----------------------------------------------------------------|
D|---------------------------------------------------------5-4-----|
A|-2-2-2-2-3-3---3-5-5-5-5---------2-2-2-2-3-3---3-5-5---7-----7-5-|
E|-------------3-----------3-3-3-5-------------3-------5-----------|

G|-----------------------------------------------------------------|
D|-----------------------------------------------------------------|
A|-2-2-2-2-3-3---3-5-5-5-5---------2-2-2-2-3-3---3-5-5-5-5---------|
E|-------------3-----------3-0-3-5-------------3-----------3-3-3-3-|

Verse
G|-----------------------------------------------------------------|
D|-----------------------------------------------------------------|
A|-3-3-3-3-3-3-3---3-3-3-3-3-0-2-3-2-2-2-2-2-2-2---2-2-2-2-2-------|
E|---------------3-------------------------------2-----------0-2-3-|

G|-----------------------------------------------------------------|
D|-----------------------------------------------------------------|
A|---------------------------------------------0-0-2-2-2-2-2-2-5-5-|
E|-5-5-5-5-5-5-5-5-5-5-5-5-5-5-5-5-3-3-3-3-3-3---------------------|

G|-----------------------------------------------------------------|
D|-----------------------------------------------------------------|
A|-3-3-3-3-3-3-3---3-3-3-3-3-0-2-3-2-2-2-2-2-2-2---2-2-2-2-2-2-2-2-|
E|---------------3-------------------------------2-----------------|

G|-----------------------------------------------------------------|
D|-----------------------------------------------------------------|
A|-4-4-4-4-4-4-4-4-4-4-4-4-4-0-2-3-5-5-5-5-3-3-3-3-2-2-2-2-0-0-5//-|
E|-----------------------------------------------------------------|

G|-----------------------------------------------|
D|-----------------------------------------------|
A|-17-17-17-17-15-15-15-15-14-14-14-14-12-12-7-0-|
E|-----------------------------------------------|

Chorus II x 2 
G|-----------------------------------------------------------------|
D|---------------------------------------------------------5-4-----|
A|-2-2-2-2-3-3---3-5-5-5-5---------2-2-2-2-3-3---3-5-5---7-----7-5-|
E|-------------3-----------3-3-3-5-------------3-------5-----------|

G|-----------------------------------------------------------------|
D|-----------------------------------------------------------------|
A|-2-2-2-2-3-3---3-5-5-5-5---------2-2-2-2-3-3---3-5-5-5-5-----0-1-|
E|-------------3-----------3-0-3-5-------------3-----------3-3-----|

Bridge
G|-----------------------------------------------------------------|
D|-----------------------------------------------------------------|
A|-2-2-2-2-2-2-2-2-2-2-2-2-2-2-2-2---------------------------------|
E|---------------------------------0-0-0-0-0-0-0-0-0-0-0-0-0-0-0-0-|

G|-------------------------------------------------------------|
D|-------------------------------------------------------------|
A|--------------------------------------------------------2----|
E|-1-1-1-1-1-1-1-1-1-1-1-1-1-1/10\3-3-5-3-5-3--3--3-5-3-5---5--|

G|-----------------------------------------------------------------|
D|-----------------------------------------------------------------|
A|-2-2-2-2-2-2-2-2-2-2-2-2-2-2-2-2-3-3-3-3-3-3-3-3-3-3-3-3-2-2-2-2-|
E|-----------------------------------------------------------------|

G|-----------------------------------------------------------------|
D|-----------------------------------------------------------------|
A|-0-0-0-0-0-0-0-0-0-0-0-0-0-0-2-3-5-5-5-5-3-3-3-3-2-2-2-2-0-0-5//-|
E|-----------------------------------------------------------------|

G|-----------------------------------------------|
D|-----------------------------------------------|
A|-17-17-17-17-15-15-15-15-14-14-14-14-12-12-7-0-|
E|-----------------------------------------------|

Chorus II

Outro
G|-------------------------------------------------------------------------------|
D|----------------------------------------5-5-7-5-7-5--5--5-7-5------------------|
A|-5---------------------------------2----------------------------2-2------------|
E|---5--10\--3-3-5-3-5-3--3--3-5-3-5---5------------------------5-----3~---------|

Happy playing!

| /  slide up
| \  slide down
| h  hammer-on
| p  pull-off
| ~  vibrato
| +  harmonic
| x  Mute note
===============================================================================
Добавлено: 21.11.2015
Другие материалы по этой песне:

Страница создана 12.04.2012
http://primanota.ru/asian-kung-fu-generation/gokurakuji-heartbreak-chords.htm
Привет, Гость.
Предлагаем пройти революционный курс по гитаре.
Подарок от PrimaNota.Ru, забирай!