PrimaNota.ru - самый крупный в мире бесплатный архив песенных текстов, аккордов, табулатур и нот


Ashleigh Grice - Better Times - таба, видео

Регистрация Запомнить меня
Войти через:  Facebook Google Twitter Vk Yandex Mail.ru

Ashleigh Grice - Better Times - таба, видео

Печатать
Просмотров: 106
-------------------------------------------------------------------------------
                             Better Times - Ashleigh Grice
-------------------------------------------------------------------------------
Tabbed by:Ashleigh Grice
Email:Ashleighgrice@live.co.uk

Tuning:Standard

Intro
E|--------------------------------------------------|
B|-----------------------0-----------1-----------3--|
G|--------0-----------0-----------2-----------4-----|
D|-----2-----0-----2-----------3-----------5--------|
A|--3-----------0-----------3-----------5-----------|
E|--------------------------------------------------|

Verse
E|--0------0------1------3------0------0------1------3--    --1----3--|
B|--1------0------1------3------1------0------1------3--    --1----3--|
G|--0------0------2------4------0------0------2------4-- x2 --2----4--|
D|--2------2------3------5------2------2------3------5--    --3----5--|
A|--3------0------3------5------3------0------3------5--    --3----5--|
E|--0------0------1------3------0------0------1------3--    --1----3--|

Chorus/Interlude
E|--7------5------1------3--|
B|--7------5------1------3--|
G|--8------5------2------4--|
D|--9------6------3------5--|
A|--9------6------3------5--|
E|--7------5------1------3--|
(on ending slide back up to 799877 and strum once for finish)

Intro
Verse(Palm Muted)
Interlude(Palm Muted)
Verse(Palm Muted)
Chorus
Verse
Interlude
Verse
Intelude
Chorus(Slow & Quite)
Interlude(play through as many times as u want, fading out)


| /  slide up
| \  slide down
| h  hammer-on
| p  pull-off
| ~  vibrato
| +  harmonic
| x  Mute note
===============================================================================
Добавлено: 09.03.2012
Другие материалы по этой песне:
  • Аккорды и текст

Страница создана 09.03.2012
http://primanota.ru/ashleigh-grice/better-times-chords.htm
Привет, Гость.
Предлагаем пройти революционный курс по гитаре.
Подарок от PrimaNota.Ru, забирай!