PrimaNota.ru - самый крупный в мире бесплатный архив песенных текстов, аккордов, табулатур и нот


Ashlee Simpson - Little Miss Obsessice - таба, видео

Регистрация Запомнить меня
Войти через:  Facebook Google Twitter Vk Yandex Mail.ru

Ashlee Simpson - Little Miss Obsessice - таба, видео

Печатать
Просмотров: 96
Ok, This is an awesome song but playing it acoustic sucks bcuz its the same boring
chords over and over... BUT i figured out a cool way to play it in drop D that sounds way
and less same-ish through the whole song... and I'm making the tabs a two guitar tab but 
can play it with just one... you can also still play it along with the actual track...

Ok... Let me know what you think please... shibbychick101@hotmail.com

Guitar 1 (intro/verse)
e----------------|
B----------------|
G--9-------------|
D--9--10--5--12--|
A--7--10--5--12--|
D-----10--5--12--|

Guitar 2 (intro/verse)
e----------------|
B----------------|
G--9--12--7--14--|
D----------------|
A--7--10--5--12--|
D----------------|


Guitar 1&2 (chorus pt. 1)
So I GUESS...
e----^-^-^-----------------------------------------------------------------|
B----|-|-|-----------------------------------------------------------------|
G----9.9.9--9.9.9---12.12.12--12.12.12---7.7.7--7.7.7---14.14.14--14.14.14-|
D----9.9.9--9.9.9---10.10.10--10.10.10---5.5.5--5.5.5---12.12.12--12.12.12-|
A----7.7.7--7.7.7---10.10.10--10.10.10---5.5.5--5.5.5---12.12.12--12.12.12-|
D-------------------10.10.10--10.10.10---5.5.5--5.5.5---12.12.12--12.12.12-|

Guitar 1 (chorus pt. 2)
Late night you make me feel like I'm Des-per-ate I'm Not Des-per-ate OH!..
e-^----^----^---^---^---^----^----^---^---^---^-----^-----^---^---^--^------|
B-|----|----|---|---|---|----|----|---|---|---|-----|-----|---|---|--|------|
G-9----9----9---9---12--12---12---12--7---7---7-----7-----14--14--14-14-----|
D-9----9----9---9---10--10---10---10--5---5---5-----5-----12--12--12-1------|2(x2)
A-7----7----7---7---10--10---10---10--5---5---5-----5-----12--12--12-12-----|
D-------------------10--10---10---10--5---5---5-----5-----12--12--12-12-----|

Guitar 2 (chorus pt. 2)
 (Same strumming as guitar 1)
e--------------------------------------------------|
B--------------------------------------------------|
G--9-9-9-9---12-12-12-12---7-7-7-7---14-14-14-14---|X2
D--X-X-X-X----X--X--X--X---X-X-X-X----X--X--X--X---|
A--7-7-7-7---10-10-10-10---5-5-5-5---12-12-12-12---|
D--------------------------------------------------|

Guitar 1 (intro again) while Guitar 2 plays e------------------------------|
                        B--------------------------------------------------|
                        G--------------------------------------------------|
                                            D-7h9-9999-7h9-9999-7h99-5\4---| X2
                        A--------------------------------------------------|
                        D--------------------------------------------------|

Guitar 1&2 (verse)
Guitar 1&2 (chorus)

Guitar 1&2 (break down pt. 1)
It's like a fairy tale...
e-----------------------------------------------------------|
B-----------------------------------------------------------|
G--9.9.9.9.9---12.12.12.12.12---7.7.7.7.7---14.14.14.14.14--|
D--7.7.7.7.7---10.10.10.10.10---5.5.5.5.5---12.12.12.12.12--|X2
A--7.7.7.7.7---10.10.10.10.10---5.5.5.5.5---12.12.12.12.12--|
D--------------10.10.10.10.10---5.5.5.5.5---12.12.12.12.12--|

Guitar 2 (breakdown pt.2)
Tell me that you care!!!!
e---------------------|
B---------------------|
G--99999999-14.14.14--|
D--XXXXXXXX--X--X--X--|
A--77777777-12.12.12--|
D---------------------|

(no guitar)
And i guess we're really over
So come over
i'm not over it
and i guess (hit x799xx) we're really over
so come over
i'm not over it OH!!!!!!

Guitar 1&2 (EXPLOSION!!!!!! hehe)
Little miss     Little miss     Little miss     Little miss obsessive
e----------     ------------     ---------     ------------------------|
B----------     ------------     ---------     ------------------------|
G-----999-- OH! ------------ OH! --------- OH! --------------14.14.14--|X2
D-----999--     --10.10.10--     ---555---     --12.12.12.12.12.12.12--|
A-----777--     --10.10.10--     ---555---     --12.12.12.12.12.12.12--|
D----------     --10.10.10--     ---555---     --12.12.12.12.12.12.12--|


Guitar 1 (chorus pt. 2)
Late night you make me feel like I'm Des-per-ate I'm Not Des-per-ate OH!...
e-^----^----^---^---^---^----^----^---^---^---^-----^-----^---^---^---^------|
B-|----|----|---|---|---|----|----|---|---|---|-----|-----|---|---|---|------|
G-9----9----9---9---12--12---12---12--7---7---7-----7-----14--14--14--14-----|
D-9----9----9---9---10--10---10---10--5---5---5-----5-----12--12--12--12-----|X2
A-7----7----7---7---10--10---10---10--5---5---5-----5-----12--12--12--12-----|
D-------------------10--10---10---10--5---5---5-----5-----12--12--12--12-----|

Guitar 2 (chorus pt. 2)
 (Same strumming as guitar 1)
e--------------------------------------------------|
B--------------------------------------------------|
G--9-9-9-9---12-12-12-12---7-7-7-7---14-14-14-14---|X2
D--X-X-X-X----X--X--X--X---X-X-X-X----X--X--X--X---|
A--7-7-7-7---10-10-10-10---5-5-5-5---12-12-12-12---|
D--------------------------------------------------|

Guitar 1 (outro)
e----------------|
B----------------|
G--9-------------|
D--9--10--5--12--|
A--7--10--5--12--|
D-----10--5--12--|

Guitar 2 (outro)
e----------------|
B----------------|
G--9--12--7--14--|
D----------------|
A--7--10--5--12--|
D----------------|
Добавлено: 26.04.2012
Вам также может быть интересно:
Другие материалы по этой песне:
  • Аккорды и текст

Страница создана 26.04.2012
http://primanota.ru/ashlee-simpson/little-miss-obsessice-chords.htm
Привет, Гость.
Предлагаем пройти революционный курс по гитаре.
Подарок от PrimaNota.Ru, забирай!