PrimaNota.ru - самый крупный в мире бесплатный архив песенных текстов, аккордов, табулатур и нот


Ashes Remain - Run - таба, видео

Регистрация Запомнить меня
Войти через:  Facebook Google Twitter Vk Yandex Mail.ru

Ashes Remain - Run - таба, видео

Печатать
Просмотров: 293
-------------------------------------------------------------------------------
                 Run - Ashes Remain
-------------------------------------------------------------------------------

An awesome solo from an awesome song from their awesome album "Last Day Breathing"

Tabbed by: Griffin Waldhauser
E-mail: griffwaldo@gmail.com

Tuning: Drop C#

Solo:

D#|---------------------------------------------------------------------------|
A#|-13b15-(15)-15r13p11-15b16-15p13h15~---13h15p13s11-13p11s10---(10b11)-10~--|
F#|---------------------------------------------------------------------------|
C#|---------------------------------------------------------------------------|
G#|---------------------------------------------------------------------------|
C#|---------------------------------------------------------------------------|

D#|---------------------------------------------------------------h12p10------|
A#|----------------------------h10-T13s15s13p10-------------------------------|
F#|------11h12-T14b15r14p12p11------------------h12p11--------h12-------------|
C#|-9h12-----------------------------------------------h12p11-----------------|
G#|---------------------------------------------------------------------------|
C#|---------------------------------------------------------------------------|

D#|-T17b18r17p14p11-T18s17p14p11p10-------------------------------------------|
A#|---------------------------------------------------------------------------|
F#|---------------------------------T14p12s11h12p11s9h11p9s7~-----------------|
C#|---------------------------------------------------------------------------|
G#|---------------------------------------------------------------------------|
C#|---------------------------------------------------------------------------|

D#|---------------------------------------------------------------------------|
A#|---------------------------------------------------------------------------|
F#|-5h7-7b8r7p5---5---------------11b12-11~-----------------------------------|
C#|-------------8---8-7-8-7-5-7-5---------------------------------------------|
G#|---------------------------------------------------------------------------|
C#|---------------------------------------------------------------------------|

D#|-T17p14p10-----------h10h14-T17p14p10-----------h11h15---------------------|
A#|-----------h11p10h11------------------h11p10h11----------------------------|
F#|---------------------------------------------------------------------------|
C#|---------------------------------------------------------------------------|
G#|---------------------------------------------------------------------------|
C#|---------------------------------------------------------------------------|

D#|-T18p15p11-----------h11h15-T18p15p11-----------h13h17---------------------|
A#|-----------h13p11h13------------------h13p11h13----------------------------|
F#|---------------------------------------------------------------------------|
C#|---------------------------------------------------------------------------|
G#|---------------------------------------------------------------------------|
C#|---------------------------------------------------------------------------|

D#|-T20p17p13-----------h13h17-T20p17p13-----------h13h17---------------------|
A#|-----------h15p13h15------------------h15p13h15----------------------------|
F#|---------------------------------------------------------------------------|
C#|---------------------------------------------------------------------------|
G#|---------------------------------------------------------------------------|
C#|---------------------------------------------------------------------------|

D#|-T20p17p13-----------h13h17-T20p17p13-----------h13h17~--------------------|
A#|-----------h15p13h15------------------h15p13h15----------------------------|
F#|---------------------------------------------------------------------------|
C#|---------------------------------------------------------------------------|
G#|---------------------------------------------------------------------------|
C#|---------------------------------------------------------------------------|

D#|-12b13-13r12p10h12b13r12---------------------------------------------------|
A#|-------------------------10\-----------------------------------------------|
F#|---------------------------------------------------------------------------|
C#|---------------------------------------------------------------------------|
G#|---------------------------------------------------------------------------|
C#|---------------------------------------------------------------------------|

D#|-12b13-13r12p10h12s17b18r17-15-17-15-13-15-13-12-13-12----12---------------|
A#|-------------------------------------------------------15----15-13-11-10-11|
F#|---------------------------------------------------------------------------|
C#|---------------------------------------------------------------------------|
G#|---------------------------------------------------------------------------|
C#|---------------------------------------------------------------------------|

D#|---------------------------------------------------------------------------|
A#|-10------------------------------------------------------------------------|
F#|----12-10-12-10-9w---------------------------------------------------------|
C#|---------------------------------------------------------------------------|
G#|---------------------------------------------------------------------------|
C#|---------------------------------------------------------------------------|

D#|-12b13-13r12p10h12b13r12---------------12h13p12------------------12-T15p12-|
A#|---------------------------------10h13----------13---------10h13-----------|
F#|-------------------------10s9s10-------------------10s9s10-----------------|
C#|---------------------------------------------------------------------------|
G#|---------------------------------------------------------------------------|
C#|---------------------------------------------------------------------------|

D#|------------------h12-T17p12-----------h12-T17~----------------------------|
A#|-h13----------h13------------h13p10h13-------------------------------------|
F#|-----h10s9s10--------------------------------------------------------------|
C#|---------------------------------------------------------------------------|
G#|---------------------------------------------------------------------------|
C#|---------------------------------------------------------------------------|

D#|-17b18r17-15-17-15-13-15-13-12-13-12----12---------------------------------|
A#|-------------------------------------15----15-13-11-10-11-10---------------|
F#|-------------------------------------------------------------12-10-12-10-9w|
C#|---------------------------------------------------------------------------|
G#|---------------------------------------------------------------------------|
C#|---------------------------------------------------------------------------|

D#|----------------12-----------12-15s18-------12-15-18s21s18-15--------------|
A#|----------11-14--------11-14----------11-14-------------------17-14--------|
F#|-------12-----------12----------------------------------------------15-(7~)|
C#|-11-14---------------------------------------------------------------------|
G#|---------------------------------------------------------------------------|
C#|---------------------------------------------------------------------------|

End.

That's it!

A huge thanks to Josh, Rob, Ben, Ryan, and Jon for being awesome!

ASHES REMAIN ROCKS!
Добавлено: 22.07.2013
Другие материалы по этой песне:
  • Аккорды и текст

Страница создана 22.07.2013
http://primanota.ru/ashes-remain/run-chords.htm
Привет, Гость.
Предлагаем пройти революционный курс по гитаре.
Подарок от PrimaNota.Ru, забирай!