PrimaNota.ru - самый крупный в мире бесплатный архив песенных текстов, аккордов, табулатур и нот


Ashes Divide - The Stone - текст песни, таба, бас-таба, видео

Регистрация Запомнить меня
Войти через:  Facebook Google Twitter Vk Yandex Mail.ru

Ashes Divide - The Stone - текст песни, таба, бас-таба, видео

Печатать
Просмотров: 223
Авторы музыки: Billy Howerdel
Авторы текста: Billy Howerdel
Ashes Divide
The Stone
Tuning: Db Gb B E Ab Db


I take absolutely no credit for this tab...I just found it somewhere.
All credits to Alan Witkowski who made this tab public.


Intro (fade in with note)
Db|-------------------2--------------2------0-----------------------------------|
Ab|-------2-2b3r2--------2-2b3r2-----------------2-2b3r2------------------------|
E |--4------------4---------------4------4-----4---------4--2-------------------|
B |------------------------------------------------------------4-4b5r4b5r4b5r4--|
Gb|-----------------------------------------------------------------------------|
Db|-----------------------------------------------------------------------------|

Intro Fig 1.
Db|-----------------------------------------------------------------------------|
Ab|-----------------------------------------------------------------------------|
E |-----------------------------------------------------------------------------|
B |-----------------------------------------------------------------------------|
Gb|------------5----5-----------------------------------------------------------|
Db|-7-x-x-5h7---------x-x--7--x-x--5h7--3--x--x--3h5-0--------------------------|

Intro Fig 2.
Db|-----------------------------------------------------------------------------|
Ab|-----------------------------------------------------------------------------|
E |-----------------------------------------------------------------------------|
B |-----------------------------------------------------------------------------|
Gb|------------5-------5--------------------------------------------------------|
Db|-7-x-x-5h7-----x-x----x-x--7--x-x--5h7--3--5--(0)--3h5-/7--------------------|

Repeat Intro Fig 1. 2x

Verse Fig 1. (listen to song for rhythm)
Db|-----------------------------------------------------------------------------|
Ab|-----------------------------------------------------------------------------|
E |-----------------------------------------------------------------------------|
B |-----------------------------------------------------------------------------|
Gb|-----------------------------------------------------------------------------|
Db|--7--77--7--7--7-7---10-1010--10--10-10--3-33-3-3--3--12-1212-12-12-12-14-14-|

Verse Fig 2.
Db|-----------------------------------------------------------------------------|
Ab|-----------------------------------------------------------------------------|
E |-----------------------------------------------------------------------------|
B |-----------------------------------------------------------------------------|
Gb|-----------------------------------------------------------------------------|
Db|-7--77-7--7-7-7---5-5-55--5-5--55---3-3-33-3--3--3-3--3----------------------|

Chorus Fig 1.
Db|-----------------------------------------------------------------------------|
Ab|-0---------------------------------------------------------------------------|
E |-1----2----5----7------------------------------------------------------------|
B |-2----2----5----7------------------------------------------------------------|
Gb|-2----0----3----5------------------------------------------------------------|
Db|-0----0---(3)--(5)-----------------------------------------------------------|

Chorus Fig 2.
Db|-----------------------------------------------------------------------------|
Ab|-0---------------------------------------------------------------------------|
E |-1----2----5-----------------------------------------------------------------|
B |-2----2----5----5------------------------------------------------------------|
Gb|-2----0----3----5------------------------------------------------------------|
Db|-0----0---(3)---3----------/15-15-15-15-15-15-15-----------------------------|

Interlude Fig 1.                        pm
Db|-----------------------------------------------------------------------------|
Ab|-----------------------------------------------------------------------------|
E |-----------------------------------------------------------------------------|
B |-2--2------2--2------2--2------2--2------------------------------------------|
Gb|-2--2------2--2------2--2------2--2--------3--2------------------------------|
Db|-0--0------0--0------0--0------0--0--0--0--------3---------------------------|

Interlude Lead
Db|----15----15----15-----------------------------------19b20r19----------------|
Ab|-19----19----19----19--------------------------------------------------------|
E |----------------------17-16-16-16--16\14-14/16-16-16----------16\------------|
B |-----------------------------------------------------------------------------|
Gb|-----------------------------------------------------------------------------|
Db|-----------------------------------------------------------------------------|

Db|-20-20-20-20-20-19-17---------------20-19-17--------------22-22-22-22b24r22--|
Ab|-----------------------------------------------------------------------------|
E |-----------------------17--17-17-17------------------------------------------|
B |---------------------------------------------19--19-19-19--------------------|
Gb|-----------------------------------------------------------------------------|
Db|-----------------------------------------------------------------------------|

Verse Fig 1.
Verse Fig 2.
Chorus Fig 1.
Chorus Fig 2.

Bridge Fig 1.
Db|------------------------14--------------------14-------12--------------------|
Ab|-12---14-14b15r14---12------14--14b15r14--12------12-------12--14-14b15r14---|
E |-----------------------------------------------------------------------------|
B |-----------------------------------------------------------------------------|
Gb|-----------------------------------------------------------------------------|
Db|-----------------------------------------------------------------------------|

Db|-----------------------------------------------------------------------------|
Ab|--12-------------------------------------------------------------------------|
E |------14--\11----11b12r11b12r11b12r11----------------------------------------|
B |-----------------------------------------------------------------------------|
Gb|-----------------------------------------------------------------------------|
Db|-----------------------------------------------------------------------------|

Bridge Fig 2.
Db|------------------------------------------------------------------------------|
Ab|------------------------------------------------------------------------------|
E |------------------------------------------------------------------------------|
B |-2---3---4---3----2---3---4---3\----------------------------------------------|
Gb|-2---3---4---3----2---3---4---3\----------------------------------------------|
Db|-0---1---2---1----0---1---2---1\----------------------------------------------|

Chorus Fig 1.

Chorus Fig 3.
Db|-----------------------------------------------------------------------------|
Ab|-0---------------------------------------------------------------------------|
E |-1----2----------------------------------------------------------------------|
B |-2----2----5----12-----------------------------------------------------------|
Gb|-2----0----5----12-----------------------------------------------------------|
Db|-0----0----3---/10-----------------------------------------------------------|

Chorus Fig 1.
Chorus Fig 2.

Outro                                                      pm
Db|-----------------------------------------------------------------------------|
Ab|-----------------------------------------------------------------------------|
E |-----------------------------------------------------------------------------|
B |-2--2-2----b2.5r2--2--2-2----b2.5r2---2--2-2----b2.5r2--2-2--2---------------|
Gb|-2--2--------------2--2---------------2--2--------------2-2--2---------------|
Db|-0--0--------------0--0---------------0--0--------------0-0--0---------------|
Добавлено: 21.03.2012
Другие материалы по этой песне:

Страница создана 29.02.2012
http://primanota.ru/ashes-divide/the-stone-chords.htm
Привет, Гость.
Предлагаем пройти революционный курс по гитаре.
Подарок от PrimaNota.Ru, забирай!