PrimaNota.ru - самый крупный в мире бесплатный архив песенных текстов, аккордов, табулатур и нот


Ash - Princess Six - текст песни, таба, видео

Регистрация Запомнить меня
Войти через:  Facebook Google Twitter Vk Yandex Mail.ru

Ash - Princess Six - текст песни, таба, видео

Печатать
Просмотров: 193
----------------------------------------------------------------------------
                           PRINCESS SIX - Ash
----------------------------------------------------------------------------

Tabbed by: Chris Colyer
Email: csc501@york.ac.uk

Tuning: Standard

Intro(x2)/Verse(x4)
e|---------------------------------------------------------------------|
B|--9999999999999999-77777777-55555555---------------------------------|
G|--9999999999999999-77777777-66666666---------------------------------|x6
D|--9999999999999999-77777777-66666666---------------------------------|
A|--7777777777777777-55555555-44444444---------------------------------|
E|---------------------------------------------------------------------|
4th repetition of Verse repeats C#m for one extra bar:
e|---------------------------------------------------------------------|
B|--9999999999999999-77777777-5555555555555555-------------------------|
G|--9999999999999999-77777777-6666666666666666-------------------------|
D|--9999999999999999-77777777-6666666666666666-------------------------|
A|--7777777777777777-55555555-4444444444444444-------------------------|
E|---------------------------------------------------------------------|

Chorus part 1.1 (my love has been denied..)
e|-------------------------------------------------------------------------|
B|-------------------------------------------------------------------------|
G|---------------4444-66666666666666-44--------------4444-66666666---------|
D|--777777777777-4444-66666666666666-44-777777777777-4444-66666666-44444444|
A|--777777777777-2222-44444444444444-22-777777777777-2222-44444444-44444444|
E|--555555555555------------------------555555555555---------------22222222|
Chorus part 1.2 (....I will never know...)
e|-------------------------------------------------------------------------|
B|-------------------------------------------------------------------------|
G|-----------4444-6666----------6666-9999----------------------------------|
D|--77777777-4444-6666-77777777-6666-9999-4444444444444444-6666666666666666|
A|--77777777-2222-4444-77777777-4444-7777-4444444444444444-6666666666666666|
E|--55555555-----------55555555-----------2222222222222222-4444444444444444|
Chorus part 2.1 (I'm out of my mind cas I need your love)
e|----------------------------------------------------------------------|
B|----------------------------------------------------------------------|
G|--6-6-6666----------6-6-6666------------------------------------------|
D|--6-6-6666-4-4-4444-6-6-6666-4-4-4444---------------------------------|x2
A|--4-4-4242-4-4-4444-4-4-4242-4-4-4444---------------------------------|
E|-----------2-2-2020----------2-2-2020---------------------------------|
Chorus 2.2 (looooooooovvveeeeeee)
e|-------------------------------------------------------------------------|
B|-------------------------------------------------------------------------|
G|--88888888--55555555-----------------------------------------------------|
D|--88888888--55555555-----------------------------------------------------|
A|--66666666--33333333-----------------------------------------------------|
E|-------------------------------------------------------------------------|

Verse 2
e|---------------------------------------------------------------------|
B|--9999999999999999-77777777-55555555---------------------------------|
G|--9999999999999999-77777777-66666666---------------------------------|x5
D|--9999999999999999-77777777-66666666---------------------------------|
A|--7777777777777777-55555555-44444444---------------------------------|
E|---------------------------------------------------------------------|
4th repeatition of Verse repeats C#m for one extra bar:
e|---------------------------------------------------------------------|
B|--9999999999999999-77777777-5555555555555555-------------------------|
G|--9999999999999999-77777777-6666666666666666-------------------------|
D|--9999999999999999-77777777-6666666666666666-------------------------|
A|--7777777777777777-55555555-4444444444444444-------------------------|
E|---------------------------------------------------------------------|

Chorus 2
Chorus part 1.1 (my love has been denied..)
e|-------------------------------------------------------------------------|
B|-------------------------------------------------------------------------|
G|---------------4444-66666666666666-44--------------4444-66666666---------|
D|--777777777777-4444-66666666666666-44-777777777777-4444-66666666-44444444|
A|--777777777777-2222-44444444444444-22-777777777777-2222-44444444-44444444|
E|--555555555555------------------------555555555555---------------22222222|
Chorus part 1.2 (....I will never know...)
e|-------------------------------------------------------------------------|
B|-------------------------------------------------------------------------|
G|-----------4444-6666----------6666-9999----------------------------------|
D|--77777777-4444-6666-77777777-6666-9999-4444444444444444-6666666666666666|
A|--77777777-2222-4444-77777777-4444-7777-4444444444444444-6666666666666666|
E|--55555555-----------55555555-----------2222222222222222-4444444444444444|
Chorus part 2.1 (I'm out of my mind cas I need your love)
e|----------------------------------------------------------------|
B|----------------------------------------------------------------|
G|--6-6-6666----------6-6-6666----------6-6-6666------------------|
D|--6-6-6666-4-4-4444-6-6-6666-4-4-4444-6-6-6666---44444444-------|
A|--4-4-4242-4-4-4444-4-4-4242-4-4-4444-4-4-4242---44444444-------|
E|-----------2-2-2020----------2-2-2020------------22222222-------|

Solo
e|--------7-----------7-----------7----------------------------------------|
B|------9---9-------9---9-------9---9---------9----------------------------|
G|--6-9-------9-6-9-------9-6-9-------9-6-6-9-------9----------------------|
D|----------------------------------------------9-9---9--------------------|
A|-------------------------------------------------------------------------|
E|-------------------------------------------------------------------------|
Continued...
e|--------7-----------7-----------7----------------------------------------|
B|------9---9-------9---9-------9---9--------------------------------------|
G|--6-9-------9-6-9-------9-6-9-------9-6-6-9--8-9p8h9p8h9p8h9p8-----------|
D|---------------------------------------------------------------9-6-------|
A|-------------------------------------------------------------------------|
E|-------------------------------------------------------------------------|
Continued...
e|----9--9-----0--0--0-0--0-0--0-0-----0--0-------------------------------|
B|/9-10-10-9-9-10-10-9-9-10-10-9-9---9/10-10\7---9---7---5----------------|
G|---------------------------------6----------6---6---6-------------------|
D|------------------------------------------------------------------------|
A|------------------------------------------------------------------------|
E|------------------------------------------------------------------------|

e|------------2-2-2-2-2---------4-4-4-4-4-4-4-4-7-7-7-7-7------------------|
B|------2-2-x-5-5-5-5-5-2-0-----4-4-4-4-4-4-4-4-7-7-7-7-7-4----------------|
G|--------------------------1-------------------------------6-5------------|
D|-------------------------------------------------------------------------|
A|-------------------------------------------------------------------------|
E|--2-x--------------------------------------------------------------------|

Final Chorus
e|------------------------------------------------------------------------|
B|------------------------------------------------------------------------|
G|--------------4444-66666666666666-44--------------4444-66666666---------|
D|--77-77-77-77-4444-66666666666666-44-777777777777-4444-66666666-44444444|
A|--77-77-77-77-2222-44444444444444-22-777777777777-2222-44444444-44444444|
E|--55-55-55-55------------------------555555555555---------------22222222|
Chorus part 1.2 (....I will never know...)
e|-------------------------------------------------------------------------|
B|-------------------------------------------------------------------------|
G|-----------4444-6666----------6666-9999----------------------------------|
D|--77777777-4444-6666-77777777-6666-9999-4444444444444444-6666666666666666|
A|--77777777-2222-4444-77777777-4444-7777-4444444444444444-6666666666666666|
E|--55555555-----------55555555-----------2222222222222222-4444444444444444|
Chorus part 2.1 (I'm out of my mind cas I need your love)
e|-------------------------------------------------------------------------|
B|-------------------------------------------------------------------------|
G|--6-6-6666----------6-6-6666----------6-6-6666----------6-6-6666---------|
D|--6-6-6666-4-4-4444-6-6-6666-4-4-4444-6-6-6666-4-4-4444-6-6-6666-4-4-4444|
A|--4-4-4242-4-4-4444-4-4-4242-4-4-4444-4-4-4242-4-4-4444-4-4-4242-4-4-4444|
E|-----------2-2-2020----------2-2-2020----------2-2-2020----------2-2-2020|
Chorus part 2.1 Reprise (Yeah Yeah Yeah Yeah Oh Oh)
e|---------------------------------------------|  |-------4------------|
B|---------------------------------------------|  |-------5------------|
G|--66666666----------66666666-----------------|x2|--6----6------------|
D|--66666666-44444444-66666666-44444444--------|  |--6----6------------|
A|--44444444-44444444-44444444-44444444--------|  |--4----4------------|
E|-----------22222020----------22222020--------|  |--------------------|

| /  slide up
| \  slide down
| h  hammer-on
| p  pull-off
| ~  vibrato
| +  harmonic
| x  Mute note
============================================================================
Добавлено: 27.03.2012
Другие материалы по этой песне:
  • Аккорды и текст

Страница создана 27.03.2012
http://primanota.ru/ash/princess-six-chords.htm
Привет, Гость.
Предлагаем пройти революционный курс по гитаре.
Подарок от PrimaNota.Ru, забирай!