PrimaNota.ru - самый крупный в мире бесплатный архив песенных текстов, аккордов, табулатур и нот


Ash - Numbskull - текст песни, таба, видео

Регистрация Запомнить меня
Войти через:  Facebook Google Twitter Vk Yandex Mail.ru

Ash - Numbskull - текст песни, таба, видео

Печатать
Просмотров: 96
Авторы музыки: Mark Hamilton

NUMBSKULL
BY ASH
FROM THE ALBUM NU-CLEAR SOUNDS
1998
-------------------------------
Tabbed by AAuuddee@aol.com


INTRO:

Guitar1:
  B5  C#5
----------
----------
----------
--9---11--repeat
--9---11--
--7---9---

Guitar2: comes later
--------------------------
--12--12--12--12--10--10--repeat
--------------------------
--------------------------
--------------------------
--------------------------


VERSE1:

Guitar1:
  B5  C#5
----------
----------
----------
--9---11--repeat
--9---11--
--7---9---

Guitar2:
--------------------------
--12--12--12--12--10--10--repeat
--------------------------
--------------------------
--------------------------
--------------------------


CHORUS:
  B5  C#5 =20
-----------
-----------
-----------
--9---11---
--9---11---
--7---9----

  B5  C#5  Ab5 F#5 =20
------------------
------------------
------------------
--9---11---6---4--repeat
--9---11---6---4--
--7---9----4---2--


VERSE2: same as verse1


CHORUS


SOLO:

Guitar1:
  E5  B5  E5  B5  A5 Ab5  A5  C5
----------------------------------
----------------------------------
--9-------9-----------------------x2
--9---9---9---9---7---6---7---10--
--7---9---7---9---7---6---7---10--
------7-------7---5---4---5---8---

Guitar2:I'm not really sure of it actually!!!
---------------------------------------------------------------
--15s17--15s17--15s17--15s17--15s17--15--12--10--12--10--------
--------------------------------------------------------9--9~--
---------------------------------------------------------------
---------------------------------------------------------------
---------------------------------------------------------------

-------------------------------------------------------------------
------8--8s10--8s10--8s10--8----------------------10p8---8s19--19--
--7h9------------------------9~--8--8--10--10--10------9-----------
-------------------------------------------------------------------
-------------------------------------------------------------------
-------------------------------------------------------------------

---------------------------------------------------------------
--17--17--17--15h17--17--15--17--15h17--17--15--17--12--10-----
-----------------------------------------------------------12--
---------------------------------------------------------------
---------------------------------------------------------------
---------------------------------------------------------------

-----------------------------------------------------------------
--10h12p10----10--15p12----12--15--15s17--20p17--------17----20--
-----------12-----------14----------------------19--16----16-----
-----------------------------------------------------------------
-----------------------------------------------------------------
-----------------------------------------------------------------

-------------------------------------
-------------------------------------
---------14--16~--14----14----14-----
--14--17-------------17----17----14--
-------------------------------------
-------------------------------------


VERSE CHORDS (without guitar2)


CHORUS


END ON B5 / C#5


ENJOY!!!


To see a list of my tabs,please visit my website:
www.multimania.com/aauuddee
     
Добавлено: 19.12.2013
Другие материалы по этой песне:

Страница создана 09.03.2012
http://primanota.ru/ash/numbskull-chords.htm
Привет, Гость.
Предлагаем пройти революционный курс по гитаре.
Подарок от PrimaNota.Ru, забирай!