PrimaNota.ru - самый крупный в мире бесплатный архив песенных текстов, аккордов, табулатур и нот


Ash - Noontide - таба, видео

Регистрация Запомнить меня
Войти через:  Facebook Google Twitter Vk Yandex Mail.ru

Ash - Noontide - таба, видео

Печатать
Просмотров: 130
------------------------------------------------------------------------------
			     Noontide - guilty gear xx
-------------------------------------------------------------------------------
Tabbed by:Victor Gonzales
Email:kibaxxreload@sbcglobal.net
This tab is for second guitar
Tuning:standard 
Symbols:
( ) let ring

Note: I added the timing so you can listen 
to the song and know which parts are which


Intro
|----------------------------------------------------|
|----------------------------------------------------|
|----------------------------------------------------|
|--4--------------------------------------------2----|
|--2--------------------------------------------0----|
|----------------------------------------------------|



|----------------------------------------------------|-----------------------------------------------------|
|----------------------------------------------------|-----------------------------------------------------|
|----------------------------------------------------|-----------------------------------------------------|
|----------------------------------------------------|-----------------------------------------------------|
|-----5-----------------------------------4----------|----2-------------------------------------5----------|
|-----3-----------------------------------2----------|----0-------------------------------------3----------|


|----------------------------------------------------|-----------------------------------------------------|
|----------------------------------------------------|-----------------------------------------------------|
|----------------------------------------------------|-----------------------------------------------------|
|---5------------------------------------------------|-----------------------------------------------------|
|---3------------------------------------------------|--2-2-2-2---2-2-2-2---2-2-2-2---2-2-2-2---2-2-2-2----|
|----------------------------------------------------|-----------------------------------------------------|


Verse                  

1st time 0:12        
2nd time 1:08
|----------------------------------------0-----------|
|--------------0-------------------------------------|
|-------0------------------------0-------------------|
|-----2---2--------2-----------2---2----------2------|
|----------------------------------------------------|
|----------------------------------------------------|



|----------------------------------------------------|-------------------------------------0---------------|
|-----------------3--0--0------3-----------0---------|--------------0--------------------------------------|
|---------0---------------------------0-2------------|--------0---------------------0----------------------|
|-----2-----2---------------------------------2------|-----2----2-------2-------2-----2---------2----------|
|----------------------------------------------------|-----------------------------------------------------|
|----------------------------------------------------|-----------------------------------------------------|


|----------------------------------------------------|-----------------------------------------------------|
|--------------3----0--0-------3---------0-----------|-----------------------------------------------------|
|------0-----------------------------0-2-------------|-----------------------------------------------------|
|---2----2-------------------------------------------|-----------------------------------------------------|
|---------------------------------------------2------|------2----------------------------------------------|
|----------------------------------------------------|------0----------------------------------------------|


1st time 0:22
2nd time 1:18
|----------------------------------------------------|-----------------------------------------------------|
|----------------------------------------------------|-----------------------------------------------------|
|----------------------------------------------------|-----------------------------------------------------|
|-------------2------------------------2-------------|-----------------------------------------------------|
|------2--------------------------2------------------|-4--------------------------------------5------------|
|-0-3----3------------------0--3----3----------------|-2-2-2-2---2-2-2-2---2-2-2-2---2-2-2-2--3--3-3-3-3---|
			                                 
1st time  0:26
2nd time 2:23
|----------------------------------------------------|-----------------------------------------------------|
|----------------------------------------------------|-----------------------------------------------------|
|----------------------------------------------------|-----------------------------------------------------|
|----------------------------------------------------|-----------------------------------------------------|
|-2---------------------------2-0--------------------|--4--------------------------------------------------|
|-0-0-0-0--0-0-0-0--0-0-0-0-------3-2-0-2-3----------|--2-2-2-2---2-2-2-2---2-2-2-2---2-2-2-2---2-2-2-2----|
  


|----------------------------------------------------|-----------------------------------------------------|
|----------------------------------------------------|-----------------------------------------------------|
|----------------------------------------------------|-----------------------------------------------------|
|----------------------------------------------------|--2--------------------------------4-----------------|
|----------------------------------------------------|--0--------------------------------2-----------------|
|--0-0-0-0---0-0-0-0---0-0-0-0---0-0-0-0-------------|-----------------------------------------------------|
  
			  

|----------------------------------------------------|-----------------------------------------------------|
|----------------------------------------------------|-----------------------------------------------------|
|----------------------------------------------------|-----------------------------------------------------|
|---2-------------4----------------------------------|----------------------7------------------------------|
|---0-------------2-------------2--------------------|---5---------5--------5--------5-----5---5-----------|
|-------------------------------0--------------------|---3---------3---------------------------------------|



|----------------------------------------------------|-----------------------------------------------------|
|----------------------------------------------------|-----------------------------------------------------|
|----------------------------------------------------|-----------------------------------------------------|
|----------5-----------4-----2-----------------------|---2----------------------------------7--------------|
|--5-------3-----------2-----0-----------------------|---0----------------------------------5--------------|
|--3----------------------------------3-----2--------|-----------------------------------------------------|


1st time 0:41
2nd time 1:37
|----------------------------------------------------|-----------------------------------------------------|
|----------------------------------------------------|-----------------------------------------------------|
|--0-------------------------------------------------|-----------------------------------------------------|
|--------4---------2-------0-------------------------|-------------------------------4---------------------|
|----------------------------------------------------|----4--------------------------2------2---2---2------|
|----------------------------------------------------|----2------------------------------------------------|



|----------------------------------------------------|-----------------------------------------------------|
|----------------------------------------------------|-----------------------------------------------------|
|----------------------------------------------------|-----------------------------------------------------|
|------------5-----------4-------0----------2--------|-----------------------------------------------------|
|---2--------3-----------2-----------------------2---|----3------------------------------------------------|
|---0------------------------------------------------|-----------------------------------------------------|

				                       (  1st time  0:51  )
                                                       (   2nd time 1:48  )
|----------------------------------------------------|-----------------------------------------------------|
|----------------------------------------------------|-----------------------------------------------------|
|----------------------------------------------------|-----------------------------------------------------|
|--5--------------------------------------4----------|------7-------------------------------9--------------|
|--5--------------------------------------4----------|------5-------------------------------7--------------|
|--3--3-3-3-3--3-3-3-3--3-3-3-3-----------2-2-2-2----|-----------------------------------------------------|
       


|----------------------------------------------------|-----------------------------------------------------|
|----------------------------------------------------|-----------------------------------------------------|
|----------------------------------------------------|-----------------------------------------------------|
|---7---------------------------------5--------------|-----4----------------------------------5------------|
|---5---------------------------------3--------------|-----2----------------------------------3------------|
|----------------------------------------------------|-----------------------------------------------------|


|----------------------------------------------------|
|----------------------------------------------------|
|----------------------------------------------------|
|---2------------------------------------------------|
|---0------------------------------------4-----------|
|----------------------------------------2-----------|



|----------------------------------------------------|-----------------------------------------------------|
|----------------------------------------------------|-----------------------------------------------------|
|----------------------------------------------------|-----------------------------------------------------|
|--7--------------------------------------9----------|------7---------------------------------5------------|
|--5--------------------------------------7----------|------5---------------------------------3------------|
|----------------------------------------------------|-----------------------------------------------------|


                                                                       
|----------------------------------------------------|-----------------------------------------------------|
|----------------------------------------------------|-----------------------------------------------------|
|----------------------------------------------------|-----------------------------------------------------|
|--4----------------------------------2--------------|------------------------------------------5----------|
|--2----------------------------------0--------------|------5-----------------------------------3----------|
|----------------------------------------------------|------3----------------------------------------------|

repeat verse with solo #1

Bridge?
2:04
|----------------------------------------------------|
|----------------------------------------------------|
|----2-----------------------------------------------|
|------------2------------0--------------------------|
|-------------------4-----------4--------------------|
|----------------------------------------------------|

repeat intro

2:17     Play this with solo #2
|---------------------------------------0------------|
|--------------0-------------------------------------|
|-------0------------------------0-------------------|
|-----2---2---------2---------2----2--------2--------|
|----------------------------------------------------|
|----------------------------------------------------|



|----------------------------------------------------|-----------------------------------------0-----------|
|----------------3--0-0---3---------------0----------|----------------0------------------------------------|
|--------0---------------------------0-2-------------|--------0----------------------0---------------------|
|-----2-----2---------------------------------2------|-----2----2-------2----------2----2------------2-----|
|----------------------------------------------------|-----------------------------------------------------|
|----------------------------------------------------|-----------------------------------------------------|

|----------------------------------------------------|
|--------------3----0-----3----------------0---------|
|------0-----------------------------0-2-------------|
|---2----2-------------------------------------2-----|
|----------------------------------------------------|
|----------------------------------------------------|


2:24
|----------------------------------------------------|-----------------------------------------------------|
|----------------------------------------------------|-----------------------------------------------------|
|----------------------------------------------------|-----------------------------------------------------|
|------------------------------2---------------------|-----------0--------0--------------------------------|
|-----------2----------------------------------------|--------------2--2-------------2---------------------|
|--0--3--0-----3-----0--3---0-----3------------------|--0--3--0-----------------3--5----0------------------|




|----------------------------------------------------|-----------------------------------------------------|
|----------------------------------------------------|-----------------------------------------------------|
|----------------------------------------------------|-----------------------------------------------------|
|------------------------------2---------------------|-----------0--------0--------------------------------|
|-----------2----------------------------------------|--------------2--2-------------2---------------------|
|--0--3--0-----3-----0--3---0-----3------------------|--0--3--0-----------------3--5----0------------------|



2:32
|----------------------------------------------------|-----------------------------------------------------|
|----------------------------------------------------|-----------------------------------------------------|
|---4-------5---------4-------5--------4---5---------|---4-------5---------4--------5--------4-----5-------|
|---4-------5---------4-------5--------4---5---------|---4-------5---------4--------5--------4-----5----4--|
|---2-------3---------2-------3--------2---3---------|---2-------3---------2--------3--------2-----3----2--|
|----------------------------------------------------|-----------------------------------------------------|

2:36
|----------------------------------------------------|
|----------------------------------------------------|
|----------------------------------------------------|
|------7-------------------------------9-------------|
|------5-------------------------------7-------------|
|----------------------------------------------------|



|----------------------------------------------------|-----------------------------------------------------|
|----------------------------------------------------|-----------------------------------------------------|
|----------------------------------------------------|-----------------------------------------------------|
|---7---------------------------------5--------------|-----4----------------------------------5------------|
|---5---------------------------------3--------------|-----2----------------------------------3------------|
|----------------------------------------------------|-----------------------------------------------------|

|----------------------------------------------------|
|----------------------------------------------------|
|----------------------------------------------------|
|---2------------------------------------------------|
|---0-----------------------------------4------------|
|---------------------------------------2------------|



|----------------------------------------------------|-----------------------------------------------------|
|----------------------------------------------------|-----------------------------------------------------|
|----------------------------------------------------|-----------------------------------------------------|
|--7--------------------------------------9----------|------7---------------------------------5------------|
|--5--------------------------------------7----------|------5---------------------------------3------------|
|----------------------------------------------------|-----------------------------------------------------|


                                                                                            
|----------------------------------------------------|-----------------------------------------------------|
|----------------------------------------------------|-----------------------------------------------------|
|----------------------------------------------------|-----------------------------------------------------|
|--4----------------------------------2--------------|------------------------------------------5----------|
|--2----------------------------------0--------------|------5-----------------------------------3----------|
|----------------------------------------------------|------3----------------------------------------------|


|----------------------------------------------------|
|----------------------------------------------------|
|----------------------------------------------------|
|----------------------------------------------------|
|---(2)----------------------------------------------|
|---(0)----------------------------------------------|

Добавлено: 02.05.2012
Другие материалы по этой песне:
  • Аккорды и текст

Страница создана 02.05.2012
http://primanota.ru/ash/noontide-chords.htm
Привет, Гость.
Предлагаем пройти революционный курс по гитаре.
Подарок от PrimaNota.Ru, забирай!