PrimaNota.ru - самый крупный в мире бесплатный архив песенных текстов, аккордов, табулатур и нот


Asg - The Dull Blade - таба, бас-таба, видео

Регистрация Запомнить меня
Войти через:  Facebook Google Twitter Vk Yandex Mail.ru

Asg - The Dull Blade - таба, бас-таба, видео

Печатать
Просмотров: 218
this song is in drop c

email:giraffe_1234@hotmail.com

e|---------------------------------------------------------------------------|
B|---------------------------------------------------------------------------|
G|----------------------3----------------------------------------------------|
D|---7-5--5-7-5---------3------7-5-----33-22---------------------------------|
A|00----0-------000-345-3-5-00-----000-33-22-345-----------------------------|
E|00----0-------000-345---5-00-----000-------345--x2-------------------------|

e|---------------------------------------------------------------------------|
B|---------------------------------------------------------------------------|
G|---------------------------------------------------------------------------|
D|77-77-87-------77-77-777-555-333-------------------------------------------|
A|55-55-65-333-5-55-55-------------333---------------------------------------|
E|---------333-5---------------------------x2--------------------------------|

e|---------------------------------------------------------------------------|
B|---------------------------------------------------------------------------|
G|---------------------------------------------------------------------------|
D|---------------------------------------------------------------------------|
A|--------5---------------000000---------------------------------------------|
E|7-5-7-7---7-5-7-5-353-0-000000--x2-----------------------------------------|
Добавлено: 14.05.2012
Другие материалы по этой песне:

Страница создана 14.05.2012
http://primanota.ru/asg/the-dull-blade-chords.htm
Привет, Гость.
Предлагаем пройти революционный курс по гитаре.
Подарок от PrimaNota.Ru, забирай!