PrimaNota.ru - самый крупный в мире бесплатный архив песенных текстов, аккордов, табулатур и нот


Asg - Species American - таба, видео

Регистрация Запомнить меня
Войти через:  Facebook Google Twitter Vk Yandex Mail.ru

Asg - Species American - таба, видео

Печатать
Просмотров: 233
Уроки эстрадного вокала в Санкт-Петербурге
             Species American - ASG



Tuning:Drop d
                         x3
e-----------------------|--------------------------------------------------|
B|--------9------10-9---|--------------12----------------------------------|
G|----------------------|--------------------11----------------------------|
D|----11----11----------|--------9-----------------------------------------|
A|----------------------|--------------------------------------------------|
D|----------------------|--------------------------------------------------|

                            x3
e|----------------------|--------------------------|
B|----------------------|--------------------------|
G|----------------------|--------------------------|
D|-----6-----7-6--------|------4--4-4--(3)---------|
A|-----4-----------7-6--|------2--2-2--(1)---------|
D|----------------------|--------------------------|
             x x   x x                  * play every other time
Pre -Verse
e|-----|--------------------------------------------------------|
B|-----|--------------------------------------------------------|
G|-----|--------------------------------------------------------|
D|-1---|-------------------------------------6-6-6--------------|
A|-1---|-------/9-6-6-6---9p6-6-6--9p6-6-6---4-4-4--------------|
D|-1---|--------------------------------------------------------|

 Fill
e|----------------------------------------|
B|----------------------------------------|
G|----------------------------------------|
D|---9--8--6--4--3-1----------------------|
A|---9--8--6--4--3-1----------------------|
D|---9--8--6--4--3-1----------------------|

Verse (intro)                                      
e|---------------------------------------------------------------------|
B|---------------------------------------------------------------------|
G|----------------------------------x2---------------------------------|
D|---------8-------8/6---6/11--11/8---------------8--------------------|
A|---------6-------6/4---4/9----9/6---------------6--------------------|
D|---------------------------------------------------------------------|
                                                   * 50-ish times
Verse
e|----------------------------------|----------------------------------|
B|----------------------------------|----------------------------------|
G|----------------------------------|----------------------------------|
D|------8------------6----------11--|--1-1111--------11--14--11--------|
A|------6------------4----------9---|--1-1111--------9---11---9--------|
D|----------------------------------|--1-1111--------------------------|
                                       x 
 Lead (not too sure about this one)
e|------------------------------------------------------------------|
B|-----------------------9b11--(11)-9--9--12--11-9-11---------------|
G|------------------8b9---------------------------------------------|
D|------------------------------------------------------------------|
A|------------------------------------------------------------------|
D|------------------------------------------------------------------|

Outro
e|-------------------------------------------------------|
B|-------------------------------------------------------|
G|-------------------------------------------------------|
D|-------------------------------------6-6-6-------------|
A|-------/9-6-6-6---9p6-6-6--9p6-6-6---4-4-4-------------|
D|-------------------------------------------------------|


e|----------------------------------------|
B|----------------------------------------|
G|----------------------------------------|
D|---9--8--6--4--3-1----------------------|
A|---9--8--6--4--3-1----------------------|
D|---9--8--6--4--3-1----------------------|

Lemme know what you think! I worked really hard!!

| /  slide up
| \  slide down
| h  hammer-on
| p  pull-off
| ~  vibrato
| +  harmonic
| x  Mute note
Добавлено: 29.04.2012
Другие материалы по этой песне:

Страница создана 29.04.2012
http://primanota.ru/asg/species-american-chords.htm
Привет, Гость.
Предлагаем пройти революционный курс по гитаре.
Подарок от PrimaNota.Ru, забирай!