PrimaNota.ru - самый крупный в мире бесплатный архив песенных текстов, аккордов, табулатур и нот


Asg - Right Death Before - таба, видео

Регистрация Запомнить меня
Войти через:  Facebook Google Twitter Vk Yandex Mail.ru

Asg - Right Death Before - таба, видео

Печатать
Просмотров: 124
(/) Slide Up  (\) Slide Down  (*) Harmonic  (b) Bend (r) Release (T) Tremelo

D|----------------------------|------------------------------|
A|---------------------------0|-----------------------------0|
F|----------------------------|------------------------------|
C|----------------------------|------------------------------|
G|--00-0-0**-*-***-*-***-*---0|--00-0-0*******************--0|
C|--00-0-022-2-233-3-355-5----|--00-0-02222222333333555555---|



D|------------------------------------------------------------------|
A|------------------------------------------------------------------|
F|------------------------------------------------------------------|
C|--7\5-5-5-7\5-5-5-7\5-5-5-7\5-5-5-7\5-5-5-7\5-5-5-7\5-5-5-7\5-5-5-|
G|--5\3-3-3-5\3-3-3-5\3-3-3-5\3-3-3-5\3-3-3-5\3-3-3-5\3-3-3-5\3-3-3-|
C|------------------------------------------------------------------|


These are picked as triplets
D|---------------------------------------------------|
A|--------------------------------------------------0|
F|--7------8--7----9--11-10-14--17--16--14----12-----|
C|---------------------------------------------------|
G|--5------6--5----7--9--8--12--15--14--12----10----0|
C|---------------------------------------------------|


Solo (2nd time tremelo pick the first measure)(Not 100% right)
D|-------------------|----------------------------|
A|-------------------|---------------------------0|
F|-------------10b---|----------------------------|
C|-----6b------------|--------5--6--5--6-565-5----|
G|--5-------8--------|--5--8----------------8-86-0|
C|-------------------|----------------------------|

(3x)(99.5% right)
D|--15-15-15----------13-13-10-10-------16-16-16-13-13-13-20-20-16/b\---|
A|-----------15-15-15-------------13-13--------------------------------0|
F|----------------------------------------------------------------------|
C|----------------------------------------------------------------------|
G|---------------------------------------------------------------------0|
C|----------------------------------------------------------------------|


(1x)
D|--15-15-15----------13-13-10-10-------17T~~~~-22T~~~~\---|
A|-----------15-15-15-------------13-13--------------------|
F|---------------------------------------------------------|
C|---------------------------------------------------------|
G|---------------------------------------------------------|
C|---------------------------------------------------------|


(2nd guitar during main riff)
D|------------------------------|
A|-----------------------------0|
F|--------*******************---|
C|--------2222222333333555555---|
G|--00-0-0---------------------0|
C|--00-0-0----------------------|


(All palm muted)
D|-----------------------------------------------------------|
A|-----------------------------------------------------------|
F|-----------------------------------------------------------|
C|-----------------------------------------------------------|
G|--00-0-0-00-0-0-00-0-0-00-0-0-00-0-0-00-0-0-00-0-0-00-0-0--|
C|--00-0-0-00-0-0-00-0-0-00-0-0-00-0-0-00-0-0-00-0-0-00-0-0--|



D|-----------------------------------------------------------------------||
A|-----------------------------------------------------------------------||
F|-----------------------------------------------------------------------||
C|--5/7-7-7--5/7-7-7--5/7-7-7--5/7-7-7--5/7-7-7--5/7-7-7--5/7-7-7--7-----||
G|--3/5-5-5--3/5-5-5--3/5-5-5--3/5-5-5--3/5-5-5--3/5-5-5--3/5-5-5--5--0--||
C|--------------------------------------------------------------------0--||

Добавлено: 28.07.2012
Другие материалы по этой песне:
  • Аккорды и текст

Страница создана 28.07.2012
http://primanota.ru/asg/right-death-before-chords.htm
Привет, Гость.
Предлагаем пройти революционный курс по гитаре.
Подарок от PrimaNota.Ru, забирай!