PrimaNota.ru - самый крупный в мире бесплатный архив песенных текстов, аккордов, табулатур и нот


Asg - Low End Insight - таба, бас-таба, видео

Регистрация Запомнить меня
Войти через:  Facebook Google Twitter Vk Yandex Mail.ru

Asg - Low End Insight - таба, бас-таба, видео

Печатать
Просмотров: 209
Rhythm Guitar
     S S S S S S E  E  S S    E  E  S S S S S S S S    S S S S S S E  E  S S  
D||------------------------|------------------------|------------------------|
A||------------------------|------------------------|------------------------|
F||------------------------|------------------------|------------------------|
C||------------------------|--3---------3-5-3-------|------------------------|
G||--3-5-3-----------------|-----5--3-5-------3-5-3-|--3-5-3-----------------|
C||--------3-5-3-0--0--3-5-|------------------------|--------3-5-3-0--0--3-5-|


  E  E  S S S S S S S S    S S S S S S E  E  S S    E  E  S S S S S S S S  
------------------------|------------------------|------------------------|
------------------------|------------------------|------------------------|
------------------------|------------------------|------------------------|
--3---------3-5-3-------|------------------------|--3---------3-5-3-------|
-----5--3-5-------3-5-3-|------------------------|-----5--3-5-------3-5-3-|
------------------------|--5-6-5-3-5-3-0--0--3-5-|------------------------|


  S S S S S S E  E  S S    E  E  S S S S S S S S    S S S S S S Q.      
------------------------|------------------------|---------------------|
------------------------|------------------------|---------------------|
------------------------|------------------------|---------------------|
------------------------|--3---------------------|--------------3------|
--3-5-3-----------------|-----5--3-5-------------|--0-----------3------|
--------3-5-3-0--0--3-5-|------------5-6-5-3-5-3-|--0-L-L-5-3-0--------|


  Q    S S E  S E.     S S S S S S Q.        Q    S S E  S E.     S S S S S S Q.      
--------------------|---------------------|--------------------|---------------------|
--------------------|---------------------|--------------------|---------------------|
--------------------|---------------------|--------------------|---------------------|
--L----L---5--7-5---|--------------3------|--L----L---5--7-5---|--------------3------|
--L------0-3--5-3---|--0-----------3------|--L--------3--5-3---|--0-----------3------|
---------0----------|--0-L-L-5-3-0--------|---------0----------|--0-L-L-5-3-0--------|


  Q    S S E  S E.     S S S S S S Q.        Q    S S E  S E.     S S S S S S E  Q     
--------------------|---------------------|--------------------|----------------------|
--------------------|---------------------|--------------------|----------------------|
--------------------|---------------------|--------------------|----------------------|
--L----L---5--7-5---|--------------3------|--L----L---5--7-5---|----------------------|
--L------0-3--5-3---|--0-----------3------|--L--------3--5-3---|--5-3-----------------|
---------0----------|--0-L-L-5-3-0--------|---------0----------|------5-3-5-3-3--0----|


  E  E  E  E  Q       S S S S S S E  Q        E   E  E  Q.        S S S S S S E  Q     
-------------------|----------------------|--------------------|----------------------|
-------------------|----------------------|--------------------|----------------------|
-------------------|----------------------|--------------------|----------------------|
-----------5--5----|----------------------|--10--10--L--5------|----------------------|
-----------3--3----|--3-5-3---------------|---8---8--L--3------|--5-3------------0----|
--L--L--L----------|--------3-5-3-3--0----|--------------------|------5-3-5-3-3--0----|


  E  E  E  E  Q       S S S S S S E  Q        E   E  E  Q.        E  E   E  E  E  S S  
-------------------|----------------------|--------------------|----------------------|
-------------------|----------------------|--------------------|----------------------|
-------------------|----------------------|--------------------|----------------------|
-----------5--5----|----------------------|--10--10--L--5------|----------------------|
--L--------3--3----|--3-5-3----------0----|---8---8--L--3------|--8--8--10--5--5--5-7-|
--L--L--L----------|--------3-5-3-3--0----|--------------------|--8--8--10--5--5--5-7-|


  PM PM PM PM PM PM PM PM                                            
  E  S  S  E  E  S  S  E     E  E  S  S E  E  E     E  E  E  Q.      
--------------------------|----------------------|------------------|
--------------------------|----------------------|------------------|
--------------------------|----------------------|------------------|
--------------------------|----------------------|--------7--7------|
--0--0--0--0--0--0--0--0--|--8--8--8-10-5--5--5--|--7--7--5--5------|
--0--0--0--0--0--0--0--0--|--8--8--8-10-5--5--5--|--7--7------------|


                         PM PM PM PM PM PM PM PM                         
  E  E   E  E  E  S S    E  S  S  E  E  S  S  E     E  E  S  S E  E  E   
----------------------|--------------------------|----------------------|
----------------------|--------------------------|----------------------|
----------------------|--------------------------|----------------------|
----------------------|--------------------------|----------------------|
--8--8--10--5--5--5-7-|--0--0--0--0--0--0--0--0--|--8--8--8-10-5--5--5--|
--8--8--10--5--5--5-7-|--0--0--0--0--0--0--0--0--|--8--8--8-10-5--5--5--|


  E  E  E  Q.        S S S S S S E  Q       E   Q     E   Q        S S S S S S E  Q     
------------------|----------------------|--5---5-----5---5-----|----------------------|
------------------|----------------------|--8b--8b----8b--8b----|----------------------|
------------------|----------------------|----------------------|----------------------|
--------7--7------|----------------------|----------------------|----------------------|
--7--7--5--5------|--3-5-3-------0--0----|----------------------|--3-5-3-------0--0----|
--7--7------------|--------3-5-3-0--0----|----------------------|--------3-5-3-0--0----|


  E  E  E  E   E   E     S S S S S S E  Q       E   Q     E   Q      
----------------------|----------------------|--5---5-----5---5-----|
----------------------|----------------------|--8b--8b----8b--8b----|
----------------------|----------------------|----------------------|
--7--7--7--7--10--10--|----------------------|----------------------|
--5--5--5--5---8---8--|--3-5-3-------0--0----|----------------------|
----------------------|--------3-5-3-0--0----|----------------------|


  S S S S S S E  Q       E  E  E  E  E  E     S S S S S S E  Q       E  Q    E  Q     
----------------------|--------------------|----------------------|------------------|
----------------------|--------------------|----------------------|------------------|
----------------------|--------------------|----------------------|------------------|
----------------------|--7--7--7--5--5--0--|--5-6-5-3-5-3-3-------|------------------|
--3-5-3-------0--0----|--5--5--5--3--3--0--|-----------------5----|------------------|
--------3-5-3-0--0----|--------------------|----------------------|--6--5----3--0----|


  S S S S S S E  E  E     E  E  S S E  Q       S S S S S S E  Q       E  Q    E  Q     
-----------------------|--------------------|----------------------|------------------|
-----------------------|--------------------|----------------------|------------------|
-----------------------|--------------------|----------------------|------------------|
--5-6-5-3-5-3-3--------|--------------------|--5-6-5-3-5-3-3-------|------------------|
-----------------5--5--|--------------------|-----------------5----|------------------|
-----------------------|--6--5--3-5-3--0----|----------------------|--6--5----3--0----|


  S S S S S S E  E  E     E  E  S S E  Q       S S S S S S Q.        Q    S S E  S E.   
-----------------------|--------------------|---------------------|--------------------|
-----------------------|--------------------|---------------------|--------------------|
-----------------------|--------------------|---------------------|--------------------|
--5-6-5-3-5-3-3--------|--------------------|--------------3------|--L----L---5--7-5---|
-----------------5--5--|--------------------|--0-----------3------|--L------0-3--5-3---|
-----------------------|--6--5--3-5-3--0----|--0-L-L-5-3-0--------|---------0----------|


  S S S S S S Q.        Q    S S E  S E.     S S S S S S Q.        Q    S S E  S E.   
---------------------|--------------------|---------------------|--------------------|
---------------------|--------------------|---------------------|--------------------|
---------------------|--------------------|---------------------|--------------------|
--------------3------|--L----L---5--7-5---|--------------3------|--L----L---5--7-5---|
--0-----------3------|--L------0-3--5-3---|--0-----------3------|--L------0-3--5-3---|
--0-L-L-5-3-0--------|---------0----------|--0-L-L-5-3-0--------|---------0----------|


  S S S S S S Q.        Q    S S E  S E.     S S S S S S E  Q       E  E  E  E  Q     
---------------------|--------------------|----------------------|-------------------|
---------------------|--------------------|----------------------|-------------------|
---------------------|--------------------|----------------------|-------------------|
--------------3------|--L----L---5--7-5---|----------------------|-----------5--5----|
--0-----------3------|--L------0-3--5-3---|--5-3-----------------|-----------3--3----|
--0-L-L-5-3-0--------|---------0----------|------5-3-5-3-3--0----|--L--L--L----------|


  S S S S S S E  Q        E   E  E  Q.        S S S S S S E  Q       E  E  E  E  Q     
----------------------|--------------------|----------------------|-------------------|
----------------------|--------------------|----------------------|-------------------|
----------------------|--------------------|----------------------|-------------------|
----------------------|--10--10--L--5------|----------------------|-----------5--5----|
--3-5-3---------------|---8---8--L--3------|--5-3------------0----|--L--------3--3----|
--------3-5-3-3--0----|--------------------|------5-3-5-3-3--0----|--L--L--L----------|


  S S S S S S E  Q        E   E  E  Q.        E  E   E  E  E  S S  
----------------------|--------------------|----------------------|
----------------------|--------------------|----------------------|
----------------------|--------------------|----------------------|
----------------------|--10--10--L--5------|----------------------|
--3-5-3----------0----|---8---8--L--3------|--8--8--10--5--5--5-7-|
--------3-5-3-3--0----|--------------------|--8--8--10--5--5--5-7-|


  PM PM PM PM PM PM PM PM                                            
  E  S  S  E  E  S  S  E     E  E  S  S E  E  E     E  E  E  Q.      
--------------------------|----------------------|------------------|
--------------------------|----------------------|------------------|
--------------------------|----------------------|------------------|
--------------------------|----------------------|--------7--7------|
--0--0--0--0--0--0--0--0--|--8--8--8-10-5--5--5--|--7--7--5--5------|
--0--0--0--0--0--0--0--0--|--8--8--8-10-5--5--5--|--7--7------------|


                         PM PM PM PM PM PM PM PM                         
  E  E   E  E  E  S S    E  S  S  E  E  S  S  E     E  E  S  S E  E  E   
----------------------|--------------------------|----------------------|
----------------------|--------------------------|----------------------|
----------------------|--------------------------|----------------------|
----------------------|--------------------------|----------------------|
--8--8--10--5--5--5-7-|--0--0--0--0--0--0--0--0--|--8--8--8-10-5--5--5--|
--8--8--10--5--5--5-7-|--0--0--0--0--0--0--0--0--|--8--8--8-10-5--5--5--|


  E  E  E  Q.        S S S S S S E  Q       E   Q     E   Q        S S S S S S E  Q     
------------------|----------------------|--5---5-----5---5-----|----------------------|
------------------|----------------------|--8b--8b----8b--8b----|----------------------|
------------------|----------------------|----------------------|----------------------|
--------7--7------|----------------------|----------------------|----------------------|
--7--7--5--5------|--3-5-3-------0--0----|----------------------|--3-5-3-------0--0----|
--7--7------------|--------3-5-3-0--0----|----------------------|--------3-5-3-0--0----|


  E  E  E  E   E   E     S S S S S S E  Q       E   Q     E   Q      
----------------------|----------------------|--5---5-----5---5-----|
----------------------|----------------------|--8b--8b----8b--8b----|
----------------------|----------------------|----------------------|
--7--7--7--7--10--10--|----------------------|----------------------|
--5--5--5--5---8---8--|--3-5-3-------0--0----|----------------------|
----------------------|--------3-5-3-0--0----|----------------------|


  S S S S S S E  Q       E  E  E  E  E  E     H.              H.            
----------------------|--------------------|---------------|---------------|
----------------------|--------------------|---------------|---------------|
----------------------|--------------------|---------------|---------------|
----------------------|--7--7--7--5--5--0--|---------------|---------------|
--3-5-3-------0--0----|--5--5--5--3--3--0--|--2------------|---------------|
--------3-5-3-0--0----|--------------------|--2------------|--L------------|


  H.              H.              H.              H.              H.            
---------------|---------------|---------------|---------------|---------------|
---------------|---------------|---------------|---------------|---------------|
---------------|---------------|---------------|---------------|---------------|
--9------------|---------------|---------------|---------------|--9------------|
--7------------|--L------------|--8------------|--L------------|--7------------|
---------------|---------------|--8------------|--L------------|---------------|


  H        Q       S S S E  Q    S S S    E  E  E  S S S E.     S S S E  Q    S S S  
----------------|----------------------|---------------------|----------------------|
----------------|----------------------|---------------------|----------------------|
----------------|----------------------|---------------------|----------------------|
--L--------9----|----------------------|---------------------|----------------------|
--L--------7----|----------------------|---------------------|----------------------|
-----------0----|--2-3-2-2--2----2-3-0-|--2--2--2--2-3-2-0---|--2-3-2-2--2----2-3-0-|


  E  E  E  S S S E.     S S S E  Q    S S S    E  E  E  S S S E.     S S S E  Q    S S S  
---------------------|----------------------|---------------------|----------------------|
---------------------|----------------------|---------------------|----------------------|
---------------------|----------------------|---------------------|----------------------|
---------------------|----------------------|---------------------|----------------------|
---------------------|----------------------|---------------------|----------------------|
--2--2--2--2-3-2-0---|--2-3-2-2--2----2-3-0-|--2--2--2--2-3-2-0---|--2-3-2-2--2----2-3-0-|


  E  E  E  S S S E.     S S S E  Q    S S S    E  E  E  S S S E.     S S S E  Q    S S S  
---------------------|----------------------|---------------------|----------------------|
---------------------|----------------------|---------------------|----------------------|
---------------------|----------------------|---------------------|----------------------|
---------------------|--2-3-2-2--2----2-3-0-|--2--2--2--2-3-2-0---|--2-3-2-2--2----2-3-0-|
---------------------|----------------------|---------------------|----------------------|
--2--2--2--2-3-2-0---|--2-3-2-2--2----2-3-0-|--2--2--2--2-3-2-0---|--2-3-2-2--2----2-3-0-|


  E  E  E  S S S E.     S S S E  Q    S S S    E  E  E  S S S E.     S S S E  Q    S S S  
---------------------|----------------------|---------------------|----------------------|
---------------------|----------------------|---------------------|----------------------|
---------------------|----------------------|---------------------|----------------------|
--2--2--2--2-3-2-0---|--2-3-2-2--2----2-3-0-|--2--2--2--2-3-2-0---|--2-3-2-2--2----2-3-0-|
---------------------|----------------------|---------------------|----------------------|
--2--2--2--2-3-2-0---|--2-3-2-2--2----2-3-0-|--2--2--2--2-3-2-0---|--2-3-2-2--2----2-3-0-|


  E  E  E  S S S E.     S S S E  Q    S S S    E  E  E  S S S E.     S S S E  Q    S S S  
---------------------|----------------------|---------------------|----------------------|
---------------------|----------------------|---------------------|----------------------|
---------------------|----------------------|---------------------|----------------------|
--2--2--2--2-3-2-0---|----------------------|---------------------|----------------------|
---------------------|----------------------|---------------------|----------------------|
--2--2--2--2-3-2-0---|--2-3-2-2--2----2-3-0-|--2--2--2--2-3-2-0---|--2-3-2-2--2----2-3-0-|


  E  E  E  S S S E.     S S S E  Q    S S S    E  E  E  S S S E.     S S S E  Q    S S S  
---------------------|----------------------|---------------------|----------------------|
---------------------|----------------------|---------------------|----------------------|
---------------------|----------------------|---------------------|----------------------|
---------------------|----------------------|---------------------|----------------------|
---------------------|----------------------|---------------------|----------------------|
--2--2--2--2-3-2-0---|--2-3-2-2--2----2-3-0-|--2--2--2--2-3-2-0---|--2-3-2-2--2----2-3-0-|


  E  E  E  S S S E.     H.              H.               H.              H.            
---------------------|---------------|---------------|----------------|---------------|
---------------------|---------------|---------------|----------------|---------------|
---------------------|---------------|---------------|----------------|---------------|
---------------------|---------------|---------------|----------------|---------------|
---------------------|--7------------|--L------------|--10------------|--L------------|
--2--2--2--2-3-2-0---|--7------------|--L------------|--10------------|--L------------|


   H.              H.              H.              H.              H.            
----------------|---------------|---------------|---------------|---------------|
----------------|---------------|---------------|---------------|---------------|
----------------|---------------|---------------|---------------|---------------|
----------------|---------------|---------------|---------------|---------------|
--12------------|--L------------|--L------------|--L------------|--L------------|
--12------------|--L------------|--L------------|--L------------|--L------------|


  H.              H.              H.              H.              H.            
---------------|---------------|---------------|---------------|---------------|
---------------|---------------|---------------|---------------|---------------|
---------------|---------------|---------------|---------------|---------------|
---------------|---------------|---------------|---------------|---------------|
--L------------|--L------------|--L------------|--L------------|--L------------|
--L------------|--L------------|--L------------|--L------------|--L------------|


  H.              E.  E.  E.   E.     S S S S S S E  E  S S    E  E  S S S S S S S S  
---------------|-------------------|------------------------|------------------------|
---------------|-------------------|------------------------|------------------------|
---------------|-------------------|------------------------|------------------------|
---------------|-------------------|------------------------|--3---------3-5-3-------|
--L------------|----------8---10---|--3-5-3-----------------|-----5--3-5-------3-5-3-|
--L------------|----------8---10---|--------3-5-3-0--0--3-5-|------------------------|


  S S S S S S E  E  S S    E.  S S S E.  E.     S S S S S S E  E  S S  
------------------------|--------------------|------------------------|
------------------------|--------------------|------------------------|
------------------------|--------------------|------------------------|
------------------------|--3---------3---5---|------------------------|
--3-5-3-----------------|------5-3-0-1---3---|--3-5-3-----------------|
--------3-5-3-0--0--3-5-|--------------------|--------3-5-3-0--0--3-5-|


  E  E  S S S S S S S S    S S S S S S E  E  S S    E.  S S S E.  E.   
------------------------|------------------------|--------------------|
------------------------|------------------------|--------------------|
------------------------|------------------------|--------------------|
--3---------3-5-3-------|------------------------|--3---------3---5---|
-----5--3-5-------3-5-3-|--3-5-3-----------------|------5-3-0-1---3---|
------------------------|--------3-5-3-0--0--3-5-|--------------------|


                         PM PM PM PM PM PM PM PM                         
  E  E   E  E  E  S S    E  S  S  E  E  S  S  E     E  E  S  S E  E  E   
----------------------|--------------------------|----------------------|
----------------------|--------------------------|----------------------|
----------------------|--------------------------|----------------------|
----------------------|--------------------------|----------------------|
--8--8--10--5--5--5-7-|--0--0--0--0--0--0--0--0--|--8--8--8-10-5--5--5--|
--8--8--10--5--5--5-7-|--0--0--0--0--0--0--0--0--|--8--8--8-10-5--5--5--|


                                            PM PM PM PM PM PM PM PM  
  E  E  E  Q.        E  E   E  E  E  S S    E  S  S  E  E  S  S  E   
------------------|----------------------|--------------------------|
------------------|----------------------|--------------------------|
------------------|----------------------|--------------------------|
--------7--7------|----------------------|--------------------------|
--7--7--5--5------|--8--8--10--5--5--5-7-|--0--0--0--0--0--0--0--0--|
--7--7------------|--8--8--10--5--5--5-7-|--0--0--0--0--0--0--0--0--|


  E  E  S  S E  E  E     E  E  E  Q.        S S S S S S E  Q       E   Q     E   Q      
----------------------|------------------|----------------------|--5---5-----5---5-----|
----------------------|------------------|----------------------|--8b--8b----8b--8b----|
----------------------|------------------|----------------------|----------------------|
----------------------|--------7--7------|----------------------|----------------------|
--8--8--8-10-5--5--5--|--7--7--5--5------|--3-5-3-------0--0----|----------------------|
--8--8--8-10-5--5--5--|--7--7------------|--------3-5-3-0--0----|----------------------|


  S S S S S S E  Q       E  E  E  E   E   E     S S S S S S E  Q     
----------------------|----------------------|----------------------|
----------------------|----------------------|----------------------|
----------------------|----------------------|----------------------|
----------------------|--7--7--7--7--10--10--|----------------------|
--3-5-3-------0--0----|--5--5--5--5---8---8--|--3-5-3-------0--0----|
--------3-5-3-0--0----|----------------------|--------3-5-3-0--0----|


  E   Q     E   Q        S S S S S S E  Q       E  E  E  E   E   E      H.            
--5---5-----5---5-----|----------------------|----------------------|----------------|
--8b--8b----8b--8b----|----------------------|----------------------|----------------|
----------------------|----------------------|----------------------|----------------|
----------------------|----------------------|--7--7--7--7--10--10--|---L------------|
----------------------|--3-5-3-------0--0----|--5--5--5--5---8---8--|---L------------|
----------------------|--------3-5-3-0--0----|----------------------|----------------|


  Q.     Q.             
----------------|-----||
----------------|-----||
----------------|-----||
--L-------------|-----||
--L------0------|-----||
---------0------|-----||
Добавлено: 06.04.2012
Другие материалы по этой песне:

Страница создана 28.02.2012
http://primanota.ru/asg/low-end-insight-chords.htm
Привет, Гость.
Предлагаем пройти революционный курс по гитаре.
Подарок от PrimaNota.Ru, забирай!