PrimaNota.ru - самый крупный в мире бесплатный архив песенных текстов, аккордов, табулатур и нот


Asesino - Y Tu Mama Tambien - текст песни, таба, видео

Регистрация Запомнить меня
Войти через:  Facebook Google Twitter Vk Yandex Mail.ru

Asesino - Y Tu Mama Tambien - текст песни, таба, видео

Печатать
Просмотров: 171
Авторы музыки: El Sadístico, Asesino
Авторы текста: Maldito X
-------------------------------------------------------------------------------
Y Tu Mama Tambien por Asesino
-------------------------------------------------------------------------------
Tabbed by:motallero
Email:m0tallero@myspace.com

Tuning= abajo 1 step DGCFAd
 
intro 
e|--------------------------------------------|
B|---------------------------0--------repx3---|
G|----------------0-------------0-------------|
D|-----0---0----------2-----------------------|
A|---3---------0----------0-------------------|
E|-1-----3------------------------------------|


B|------------0---------------------0------|
G|--------0------0--------------0------0---|
D|----5------------------------------------|
A|----3------------------5-----------------|
E|-----------------------3-----------------|


e|--------------------------------------------|
B|---------------------------0--------repx3---|
G|----------------0-------------0-------------|
D|-----0---0----------2-----------------------|
A|---3---------0----------0-------------------|
E|-1-----3------------------------------------|

          harmonics    
e|--------------------------------------------|
B|-----------(5)------------------------------|
G|-------(5)-----(5)--------------------------|
D|--------------------------------------------|
A|----3----------------3-5--------------------|
E|-----------------------3--------------------|

 chorus 
e|-------------------------------------------------------|
B|-----------------------------------------------repeatx3|
G|-------------------------------------------------------|
D|------------------5--5----5--5---5-5-5-----------------|
A|-3--3----5--5-----0--0----0--0---0-0-0-----------------|
E|-1--1----3--3------------------------------------------|

e|----------------------------------------|
B|----------------------------------------|
G|----------------------------------------|
D|--5-5-5-5-5-5-5-5-5---------------------|
A|--3-3-3-3-3-3-3-3-3-5-5-5-5-5-5-5-5-5---|
E|--3-3-3-3-3-3-3-3-3-3-3-3-3-3-3-3-3-3---|

Verse
e|----------------------------------------------------------------|
B|--------------------------------------------------------repeatx3|
G|----------------------------------------------------------------|
D|----------------------------------------------------------------|
A|-3--3-3--5--5-5---7--7-7---7--7-7--7--7-7--7--7-7---------------|
E|-1--1-1--3--3-3---5--5-5---5--5-5--5--5-5--5--5-5---------------|
   *  *    *  *     *  *     *  *    *  *    *  *
    v   ^ v   v   ^ v   v   ^ v   v   ^ v   v   ^ v   v   ^ v
e|-------------------------------------------------------------|
B|-------------------------------------------------------------|
G|-------------------------------------------------------------|
D|--5---5-5---5---5-5---5---5-5--------------------------------|
A|--3---3-3---3---3-3---3---3-3---5---5-5---5---5-5---5---5-5--|
E|--3---3-3---3---3-3---3---3-3---3---3-3---3---3-3---3---3-3--|
    *   * *   *   * *   *   * *   *   * *   *   * *   *   * *
 
puente     (Tu mama,          Mi mama           contigo)
e|----------------------------------------------------------------------------|
B|----------------------------------------------------------------------------|
G|----------445555544--------445555544----------445555544----------445555544-7|
D|--------------------------------------------2------------------4------------|
A|--3--3-3-----------------5-------------0--0-0-------------2--2-2------------|
E|--------------------3--3-3--------------------------------------------------|
    *  * *            *  * *             *  * *             *  * *

Breakdown
e|----------------------------------------------------|
B|----------------------------------------------------|
G|-(5)------------------------------------------------|
D|--5-------------------2--------4------2--5--4--7----|
A|--3----------5--------0--------2------0--3--2--5----|
E|-------------3--------------------------------------|

e|----------------------------------------|
B|----------------------------------------|
G|----------------------------------------|
D|--5-5-5-5-5-5-5-5-5---------------------|
A|--3-3-3-3-3-3-3-3-3-5-5-5-5-5-5-5-5-5---|
E|--3-3-3-3-3-3-3-3-3-3-3-3-3-3-3-3-3-3---|
    * * * * * * * * * * * * * * * * * *

*=palm mute
/=slide up
v=downstroke
^=upstroke

==============
=================================================================
Добавлено: 14.05.2012
Другие материалы по этой песне:

Страница создана 15.03.2012
http://primanota.ru/asesino/y-tu-mama-tambien-chords.htm
Привет, Гость.
Предлагаем пройти революционный курс по гитаре.
Подарок от PrimaNota.Ru, забирай!