PrimaNota.ru - самый крупный в мире бесплатный архив песенных текстов, аккордов, табулатур и нот


Asesino - Padre Pedofilio - текст песни, таба, видео

Регистрация Запомнить меня
Войти через:  Facebook Google Twitter Vk Yandex Mail.ru

Asesino - Padre Pedofilio - текст песни, таба, видео

Печатать
Просмотров: 216
Авторы музыки: El Sadístico, Asesino
Авторы текста: Maldito X
-------------------PADRE PEDOFILIO (Pedophile Priest) - Asesino 
-------------------------------------------------------------------------------
Tabbed by:motallero
Email:motallero@hotmail.com

Tuning: F# B E A D G (b, e) You need extra heavy strings to tune this low or it 
will be a floppy mess

main riff 
e|---------------------------------------------------------------------------|
B|---------------------------------------------------------------------------|
G|---------------44444444444333333-------------------------------------------|
D|--------------------------------------------5555555555444444444------------|
A|-2-5-3-5-2-----------------------2-5-3-6-5---------------------------------|
E|-0-3-1-3-0-----------------------0-3-1-4-3---------------------------------|
                            
Verse
e|---------------------------------------------------------------------------|
B|---------------------------------------------------------------------------|
G|---------------------------------------------------------------------------|
D|---------------------------------------------------------------------------|
A|-4/5-2-2-5/6-2-2-3/42-4/5-2-2-5/6-2----322---------------------------------|
E|-2/3-0-0-3/4-0-0-1/20-2/3-0-0-3/4-0----100---------------------------------|
       * *     * *    *     * *     *    ***

prechorus  (note: all trem counts are approximate)
e|-------------------------------------------------------|
B|------------------------------5544444455444444455444444|
G|--7766666666677666666677666666-------------------------|
D|-------------------------------------------------------|
A|-------------------------------------------------------|
E|-------------------------------------------------------|

e|---------------------------------------------------|
B|------------------------------5544444--------------|
G|-77666666666776666666776666666---------------------|
D|--------------------------------------6-6-6-66-----|
A|--------------------------------------4-4-4-44-----|
E|---------------------------------------------------|
                                        * * * **
e|----------------------------------------------|
B|-----------------------------5544444----------|
G|77666666666776666666677666666-------4/5-4-----|
D|------------------------------------2/3-2-5-6-|
A|------------------------------------------3-4-|
E|----------------------------------------------|

e|--------------------------------------------------------|
B|------------------------------5544444-------------------|
G|-77666666666776666666677666666--------------------------|
D|--------------------------------------6-6-6-66--6-6-6-66|
A|--------------------------------------4-4-4-44--4-4-4-44|
E|--------------------------------------------------------|
                                        * * * **  * * * **


interlude
e|------------------------------------------------------------|
B|------------------------------------------------------------|
G|-------------------4-----4--3-------------------------------|
D|-----------------------------------------------5----5--4----|
A|------------------------------------------------------------|
E|-0-3-1-3-0-----------------------0-3-1-4-3------------------|

outro
e|----------------------------------------------------------------|
B|----------------------------------------------------------------|
G|--------------44444444444333333---------------------------------|
D|--------------------------------------------5555555555444444444-|
A|-2-5-3-5-2-222-----------------2-5-3-6-5-555--------------------|
E|-0-3-1-3-0-000-----------------0-3-1-4-3-333--------------------|
             ***                           ***


************************************
  *   palm mute
| /   slide up
| \   slide down
| h   hammer-on
| p   pull-off
| ~   vibrato
| +   harmonic
| x   Mute note
| b   Bend
| pb  Pre-bend
| br  Bend release
| pbr Pre-bend release
| brb Bend release bend

************************************
Добавлено: 14.06.2012
Другие материалы по этой песне:
  • Аккорды и текст

Страница создана 14.06.2012
http://primanota.ru/asesino/padre-pedofilio-chords.htm
Привет, Гость.
Предлагаем пройти революционный курс по гитаре.
Подарок от PrimaNota.Ru, забирай!