PrimaNota.ru - самый крупный в мире бесплатный архив песенных текстов, аккордов, табулатур и нот


Ascension - When Daylight Dies - таба, видео

Регистрация Запомнить меня
Войти через:  Facebook Google Twitter Vk Yandex Mail.ru

Ascension - When Daylight Dies - таба, видео

Печатать
Просмотров: 111
http://profile.myspace.com/index.cfm?fuseaction=user.viewprofile&friendid=3614740

Guitar one
     H.           Q       H        H           H.           Q     
E||--------------------|--------------------|--------------------|
B||--------------------|--------------------|--------------------|
G||--------------------|--------------------|--------------------|
D||---------------4----|-----------5--------|---------------4----|
A||--2------------4----|--5--------5--------|--2------------4----|
E||--2------------2----|--5--------3--------|--2------------2----|
B||--0-----------------|--3-----------------|--0-----------------|


  H        H           H.           Q       H        H         
--------------------|--------------------|--------------------|
--------------------|--------------------|--------------------|
--------------------|--------------------|--------------------|
--------------------|---------------4----|-----------5--------|
--6--------3--------|--2------------4----|--5--------5--------|
--6--------3--------|--2------------2----|--5--------3--------|
--4--------1--------|--0-----------------|--3-----------------|


  H.           Q       H        H           H.           Q     
--------------------|--------------------|--------------------|
--------------------|--------------------|--------------------|
--------------------|--------------------|--------------------|
---------------4----|--------------------|---------------4----|
--2------------4----|--6--------3--------|--2------------4----|
--2------------2----|--6--------3--------|--2------------2----|
--0-----------------|--4--------1--------|--0-----------------|


  H        H           H.           Q       H        H         
--------------------|--------------------|--------------------|
--------------------|--------------------|--------------------|
--------------------|--------------------|--------------------|
-----------5--------|---------------4----|--------------------|
--5--------5--------|--2------------4----|--6--------3--------|
--5--------3--------|--2------------2----|--6--------3--------|
--3-----------------|--0-----------------|--4--------1--------|


  H.           Q       H        H           H.           Q     
--------------------|--------------------|--------------------|
--------------------|--------------------|--------------------|
--------------------|--------------------|--------------------|
---------------4----|-----------5--------|---------------4----|
--2------------4----|--5--------5--------|--2------------4----|
--2------------2----|--5--------3--------|--2------------2----|
--0-----------------|--3-----------------|--0-----------------|


  H        H            E  E  E  E  E  E  E  E     E  E  E  E  E  E  E  E   
--------------------||--------------------------|--------------------------|
--------------------||--------------------------|--------------------------|
--------------------||--------------------------|--------------------------|
--------------------||--9--9--9--9--9--9--9--9--|--7--7--7--7--7--7--7--7--|
--6--------3--------||--7--7--7--7--7--7--7--7--|--9--9--9--9--9--9--9--9--|
--6--------3--------||--------------------------|--------------------------|
--4--------1--------||--------------------------|--------------------------|


   E   E   E   E   E   E   E   E     E  E  E  E  E  E  E  E   
----------------------------------|--------------------------|
----------------------------------|--------------------------|
----------------------------------|--------------------------|
--10--10--10--10--10--10--12--12--|--9--9--9--9--9--9--9--9--|
--12--12--12--12--12--12--10--10--|--7--7--7--7--7--7--7--7--|
----------------------------------|--------------------------|
----------------------------------|--------------------------|


  E  E  E  E  E  E  E  E     E  E  E  E  E  E  E  E   
--------------------------|--------------------------|
--------------------------|--------------------------|
--------------------------|--------------------------|
--9--9--9--9--9--9--9--9--|--7--7--7--7--7--7--5--5--|
--7--7--7--7--7--7--7--7--|--9--9--9--9--9--9--7--7--|
--8--8--8--8--8--8--8--8--|--8--8--8--8--8--8--0--0--|
--------------------------|--------------------------|


  E  E  E  E  E  E  E  E     E  E  E  E  E  E  E  E                         
--------------------------|---------------------------|
--------------------------|---------------------------|
--4--4--4--4--4--4--7--7--|--5--5--5--5--5--5--5--5---|
--5--5--5--5--5--5--5--5--|--7--7--7--7--7--7--7--7---|
--0--0--0--0--0--0--0--0--|--0--0--0--0--0--0--0--0---|

SECOND GUITAR_------------------------------------------

Track 2
     H.           Q       H        H           H.           Q     
E||--------------------|--------------------|--------------------|
B||--------------------|--------------------|--------------------|
G||--------------------|--------------------|--------------------|
D||---------------4----|-----------5--------|---------------4----|
A||--2------------4----|--5--------5--------|--2------------4----|
E||--2------------2----|--5--------3--------|--2------------2----|
B||--0-----------------|--3-----------------|--0-----------------|


  H        H           H.           Q       H        H         
--------------------|--------------------|--------------------|
--------------------|--------------------|--------------------|
--------------------|--------------------|--------------------|
--------------------|---------------4----|-----------5--------|
--6--------3--------|--2------------4----|--5--------5--------|
--6--------3--------|--2------------2----|--5--------3--------|
--4--------1--------|--0-----------------|--3-----------------|


  H.           Q       H        H           H.           Q     
--------------------|--------------------|--------------------|
--------------------|--------------------|--------------------|
--------------------|--------------------|--------------------|
---------------4----|--------------------|--4------------7----|
--2------------4----|--6--------3--------|--------------------|
--2------------2----|--6--------3--------|--2------------5----|
--0-----------------|--4--------1--------|--------------------|


  H        H           H.           Q       H        H         
--------------------|--------------------|--------------------|
--------------------|--------------------|--------------------|
--------------------|--------------------|--------------------|
--5--------8--------|--4------------7----|--5-----------------|
--------------------|--------------------|-----------6--------|
--3--------6--------|--2------------5----|--3-----------------|
--------------------|--------------------|-----------4--------|


  H.           Q       H        H           H.           Q     
--------------------|--------------------|--------------------|
--------------------|--------------------|--------------------|
--------------------|--------------------|--------------------|
--4------------7----|--5--------8--------|--4------------7----|
--------------------|--------------------|--------------------|
--2------------5----|--3--------6--------|--2------------5----|
--------------------|--------------------|--------------------|


  H        H            E  E  E  E  E  E  E  E     E  E  E  E  E  E  E  E   
--------------------||--------------------------|--------------------------|
--------------------||--------------------------|--------------------------|
--------------------||--------------------------|--------------------------|
--5-----------------||--9--9--9--9--9--9--9--9--|--7--7--7--7--7--7--7--7--|
-----------6--------||--7--7--7--7--7--7--7--7--|--9--9--9--9--9--9--9--9--|
--3-----------------||--------------------------|--------------------------|
-----------4--------||--------------------------|--------------------------|


   E   E   E   E   E   E   E   E     E  E  E  E  E  E  E  E   
----------------------------------|--------------------------|
----------------------------------|--------------------------|
----------------------------------|--------------------------|
--10--10--10--10--10--10--12--12--|--9--9--9--9--9--9--9--9--|
--12--12--12--12--12--12--10--10--|--7--7--7--7--7--7--7--7--|
----------------------------------|--------------------------|
----------------------------------|--------------------------|


  E  E  E  E  E  E  E  E     E  E  E  E  E  E  E  E   
--------------------------|--------------------------|
--------------------------|--------------------------|
--------------------------|--------------------------|
--9--9--9--9--9--9--9--9--|--7--7--7--7--7--7--5--5--|
--7--7--7--7--7--7--7--7--|--9--9--9--9--9--9--7--7--|
--8--8--8--8--8--8--8--8--|--8--8--8--8--8--8--0--0--|
--------------------------|--------------------------|


  E  E  E  E  E  E  E  E     E  E  E  E  E  E  E  E                  
--------------------------|---------------------------|
--------------------------|---------------------------|
--------------------------|---------------------------|
--4--4--4--4--4--4--7--7--|--5--5--5--5--5--5--5--5---|
--5--5--5--5--5--5--5--5--|--7--7--7--7--7--7--7--7---|
--------------------------|---------------------------|
Добавлено: 11.06.2012
Вам также может быть интересно:
Другие материалы по этой песне:
  • Аккорды и текст

Страница создана 11.06.2012
http://primanota.ru/ascension/when-daylight-dies-chords.htm
Привет, Гость.
Предлагаем пройти революционный курс по гитаре.
Подарок от PrimaNota.Ru, забирай!