PrimaNota.ru - самый крупный в мире бесплатный архив песенных текстов, аккордов, табулатур и нот


Ascension - Wake Up - таба, видео

Регистрация Запомнить меня
Войти через:  Facebook Google Twitter Vk Yandex Mail.ru

Ascension - Wake Up - таба, видео

Печатать
Просмотров: 114
Ascension 
Wake Up
No official record out
4/4
Drop D (E,B,G,D,A,D)

Intro play twice
e|----------------|
b|-555666888666556|
g|-555555555555555|
d|----------------|
a|----------------|
d|----------------|
pm  .. .. .. ..  . 

chorus play chorus 1 and 3
e|--------------------------------------------|
b|--------------------------------------------|
g|--------------------------------------------|
d|8-8-8-8-8x-8x-8-8-8-10-0~0-0-0--10-8-7h8p7--|
a|8-8-8-8-8x-8x-8-8-8-10-0~0-0-0------------8-|
d|8-8-8-8-8x-8x-8-8-8-10-0~0-0-0--------------|
pm                  . . .
play chorus 2
e|------------------------------------|
b|------------------------------------|
g|------------------------------------|
d|8-8-8-8-8x-8x-8-8-8-10-0~00-0-7-8-8-|
a|8-8-8-8-8x-8x-8-8-8-10-0~00-0-------|
d|8-8-8-8-8x-8x-8-8-8-10-0~00-0-------|
pm                          .
on 4th chorus play this
e|----------------------------|
b|----------------------------|
g|----------------------------|
d|8-8-8-8-8x-8x-8-8-8-10-0~~~~|
a|8-8-8-8-8x-8x-8-8-8-10-0~~~~|
d|8-8-8-8-8x-8x-8-8-8-10-0~~~~|
pm                        .... use fat part of hand to mutedly fade the open chord

verse
e|---------------------------------------------------------|
b|---------------------------------------------------------|
g|---------------------------------------------------------|
d|0-0000-0-0000-0-0000-8-8-8-0-0000-0-0000-0-0000-8-10-8-0-|
a|0-0000-0-0000-0-0000-8-8-8-0-0000-0-0000-0-0000-6--8-6-0-|
d|0-0000-0-0000-0-0000-8-8-8-0-0000-0-0000-0-0000--------0-|
pm  ....   ....   ....         ....   ....   ....

fill
e|--------------------|
b|--------------------|
g|-12-10-9h10p9h------|
d|---------------10-0-|
a|---------------10-0-|
d|---------------10-0-|

solo
e|----------------------------------------------------------------|
b|----12-15-15b17-15b17-15b17-15b17r15h12p15----------------------|
g|- 14-------------------------------------------12-14b16r14-12---|
d|--------------------------------------------14---------------14-|
a|----------------------------------------------------------------|
d|----------------------------------------------------------------|
solo (continued)
e|-------------------------12----------------------------15----------------|
b|-----------------------------------------------12-15b17--(17)r15-12-15b17|
g|-----------------12-14b16--14b16-12-14b16r14-14--------------------------|
d|-12-12h14---12h14--------------------------------------------------------|
a|-------------------------------------------------------------------------|
d|-------------------------------------------------------------------------|

solo (continued)
e|
b|-12h14-14-12--12---|
g|-12h14-14-12--12---|
d|------------14--14-|
a|-------------------|
d|-------------------|

this is my first tab of Ascension, and i really do hope this is'nt the last!
You guys are great.
Добавлено: 17.06.2012
Вам также может быть интересно:
Другие материалы по этой песне:
  • Аккорды и текст

Страница создана 17.06.2012
http://primanota.ru/ascension/wake-up-chords.htm
Привет, Гость.
Предлагаем пройти революционный курс по гитаре.
Подарок от PrimaNota.Ru, забирай!