PrimaNota.ru - самый крупный в мире бесплатный архив песенных текстов, аккордов, табулатур и нот


Ascend The Hill - Awake - таба, видео

Регистрация Запомнить меня
Войти через:  Facebook Google Twitter Vk Yandex Mail.ru

Ascend The Hill - Awake - таба, видео

Печатать
Просмотров: 95
e-------------------------------------------2--2--2--2--4--4--4--4------|
B---5---4----5-----4----5----4----5-----4-------------------------------|
G-----4---4-----4----4----4----4----4-----4---4--4--4--4--4--4--4--4----|
D-----------------------------------------------------------------------|
A-----------------------------------------------------------------------|
E-----------------------------------------------------------------------|

e-------------------------------------------2--2--2--2------------------|
B---5---4----5-----4----5----4----5-----4----------------4b-------------|
G-----4---4-----4----4----4----4----4-----4---4--4--4--4----------------|
D-----------------------------------------------------------------------|
A-----------------------------------------------------------------------|
E-----------------------------------------------------------------------|
Добавлено: 31.08.2013
Другие материалы по этой песне:
  • Аккорды и текст

Страница создана 02.06.2013
http://primanota.ru/ascend-the-hill/awake-chords.htm
Привет, Гость.
Предлагаем пройти революционный курс по гитаре.
Подарок от PrimaNota.Ru, забирай!