PrimaNota.ru - самый крупный в мире бесплатный архив песенных текстов, аккордов, табулатур и нот


Ascariasis - Against The Tempest - таба, видео

Регистрация Запомнить меня
Войти через:  Facebook Google Twitter Vk Yandex Mail.ru

Ascariasis - Against The Tempest - таба, видео

Печатать
Просмотров: 129
Уроки эстрадного вокала в Санкт-Петербурге
Ascariasis
Against the Tempest solo section
2011

TUNING: F# B F# B E G# C# - i'm pretty sure this is the tuning that the band uses since 
they use seven strings, but you can play
the whole solo in six string drop B [which is this tuning minus the low F#]

C#|----15p14--14--------------------------------------------------------------|
G#|15~~-----16--16p151615131513--13-------------------------------12h15h1914~-|
E |----------------------------15--1514151412h20p0h10h13h17p0h10h13-----------|
B |---------------------------------------------------------------------------|
F#|---------------------------------------------------------------------------|
B |---------------------------------------------------------------------------|
F#|---------------------------------------------------------------------------|

C#|--------15h18h22p18p15h18h20p18p15h18h23p18p15h18------------------151718--|
G#|------16-----------------------------------------------------161820--------|
E |----15-------------------------------------------------151719--------------|
B |--17---------------------------------------------131517--------------------|
F#|18-------------------------------------------------------------------------|
B |---------------------------------------------------------------------------|
F#|---------------------------------------------------------------------------|


C#|p17~~--------------15171814h15h17h18p17p15p14h15h17h22p17p15p14~~14///////-|
G#|-----151615--151619--------------------------------------------------------|
E |-----------17--------------------------------------------------------------|
B |---------------------------------------------------------------------------|
F#|---------------------------------------------------------------------------|
B |---------------------------------------------------------------------------|
F#|---------------------------------------------------------------------------|

C#|1411----1714-------------11h14h17--------14h17h20-------------------------|
G#|----13------16---10h13h16--------13h16h19---------------------------------|
E |------11------14----------------------------------------------------------|
B |--------------------------------------------------------------------------|
F#|--------------------------------------------------------------------------|
B |--------------------------------------------------------------------------|
F#|--------------------------------------------------------------------------|

C#|-----------------------------------------------1518h22p18p15h22p18p15---->
G#|------------------------11-1311151316~~------17-------------------------->
E |1211121414/1514121112~~---14---------------15---------------------------->
B |----------------------------------------17------------------------------->
F#|------------------------------------------------------------------------->
B |------------------------------------------------------------------------->
F#|------------------------------------------------------------------------->

C#|h20p18p15-------------------------15--14-14/17~~--------------------------|
G#|---------16------/13~~111315~13~------------------------------------------|
E |-----------15-------------------14--14------------------------------------|
B |-------------17-----------------------------------------------------------|
F#|---------------16---------------------------------------------------------|
B |--------------------------------------------------------------------------|
F#|--------------------------------------------------------------------------|

C#|----10h15h18p15p10h17p15p10h20p15p1017p15p10h22p18p15h18p15/10h15p10----->
G#|--11----------------------------------------------------------------11--->
E |12----------------------------------------------------------------------->
B |------------------------------------------------------------------------->
F#|------------------------------------------------------------------------->
B |------------------------------------------------------------------------->
F#|------------------------------------------------------------------------->

C#|h23p20p17h23p20p17h23p20p17h23p20p17---------141714------111411---------->
G#|------------------------------------19-----17------17--14------14-------->
E |--------------------------------------17/14----------11------------------>
B |------------------------------------------------------------------------->
F#|------------------------------------------------------------------------->
B |------------------------------------------------------------------------->
F#|------------------------------------------------------------------------->

C#|--------------------------------22-17------------------------------------|
G#|-------------------------------------19-------20202019~~~~~~~~~~~~~~~~~~~|
E |14h15h16h17~17-19-20~19~20p19p17-------20-19~~---------------------------|
B |-------------------------------------------------------------------------|
F#|-------------------------------------------------------------------------|
B |-------------------------------------------------------------------------|
F#|-------------------------------------------------------------------------|

FIN

band: http://www.facebook.com/ascariasis
Добавлено: 12.07.2012
Другие материалы по этой песне:

Страница создана 12.07.2012
http://primanota.ru/ascariasis/against-the-tempest-chords.htm
Привет, Гость.
Предлагаем пройти революционный курс по гитаре.
Подарок от PrimaNota.Ru, забирай!