PrimaNota.ru - самый крупный в мире бесплатный архив песенных текстов, аккордов, табулатур и нот


Asaf Avidan And The Mojos - The Devil And Me - таба, видео

Регистрация Запомнить меня
Войти через:  Facebook Google Twitter Vk Yandex Mail.ru

Asaf Avidan And The Mojos - The Devil And Me - таба, видео

Печатать
Просмотров: 149
Уроки эстрадного вокала в Санкт-Петербурге
-------------------------------------------------------------------------------
             THE DEVIL AND ME - Asaf Avidan And The Mojos
-------------------------------------------------------------------------------

Tabbed by: Chai Ozeri
Email: chainet24@gmail.com


Hi, this is the second part of the last song of "the reckoning" album.
AA & the mojos play this as a separate song in their shows, so I've tabbed the two songs 
scorpions & bells, the devil and me) separately.
one of my favorite songs, enjoy.

Tuning: standard, capo on 2nd fret!


INTRO:

e|----------------------------------------------------|
B|------1-----1-----1-----1-----1-----1-----1-----1---|
G|------2-----2-----2-----2-----2-----2-----2-----0---|
D|---------2-----------2-----------2-----------2------|
A|---0-----------0-----------0-----------0------------|
E|----------------------------------------------------|


VERSE 1:

e|----------------------------------------------------|
B|------1-----1-----1-----1-----1-----1-----1-----1---|
G|------0-----0-----0-----0-----0-----0-----0-----0---|
D|---------2-----------2-----------2-----------2------|
A|---3-----------3-----------3-----------3------------|
E|----------------------------------------------------|
           all my bones are creaking,
                                   and my eyes are leaking

e|----------------------------------------------------|
B|------1-----1-----1-----1-----1-----1-----1-----1---|
G|------2-----2-----2-----2-----2-----2-----2-----0---|
D|---------2-----------2-----------2-----------2------|
A|---0-----------0-----------0-----------0------------|
E|----------------------------------------------------|
           but all these fingers are speaking
                                   through the strings they're freakin'

e|------------1-----------1-----------1---------------|
B|------1-----1-----1-----1-----1-----1-----1-----0---|
G|------2-----2-----2-----2-----2-----2-----2---------|
D|---3-----3-----3-----3-----3-----3-----3-----3------|
A|----------------------------------------------------|
E|----------------------------------------------------|
     out                                 and everybody's waisting

e|---3-----------1-----------3-----1-----0------------|
B|---0-----------------------------------------3------|
G|---0------------------------------------------------|
D|---0------------------------------------------------|
A|---2------------------------------------------------|
E|---3------------------------------------------------|
     time                    I'll say it again

play verse 1 again, this time sing one octave higher (and without the "I'll say it 
of course).


CHORUS:

e|----------------------------------------------------|
B|------1-----1-----1-----1-----1-----1-----1-----1---|
G|------2-----2-----2-----2-----2-----2-----2-----0---|
D|---------2-----------2-----------2-----------2------|
A|---0-----------0-----------0-----------0------------|
E|----------------------------------------------------|
     oh                the devil and me     we're playing

e|------------1-----------1-----------1---------------|
B|------1-----1-----1-----1-----1-----1-----1-----1---|
G|------2-----2-----2-----2-----2-----2-----2-----0---|
D|---3-----3-----3-----3-----3-----3-----3-----3------|
A|----------------------------------------------------|
E|----------------------------------------------------|
     games          we shouldn't be            k  i

e|----------------------------------------------------|
B|------1-----1-----1-----1-----1-----1-----1-----1---|
G|------0-----0-----0-----0-----0-----0-----0-----0---|
D|---------2-----------2-----------2-----------2------|
A|---3-----------3-----------3-----------3------------|
E|----------------------------------------------------|
     s     s     i     n     g                 way up

e|----------------------------------------------------|
B|------0-----0-----0-----0-----0-----0-----0-----0---|
G|------0-----0-----0-----0-----0-----0-----0-----0---|
D|---------2-----------2-----------2-----------2------|
A|---2-----------2-----------2-----------2------------|
E|----------------------------------------------------|
     and   around      my    tree

play chorus again, this time the last part is:

e|----------------------------------------------------|
B|---------0------------------------------------------|
G|---------0------------------------------------------|
D|----------------------------------------------------|
A|---2------------------------------------------------|
E|----------------------------------------------------|
     and   around      my    tree


VERSE 2:

e|----------------------------------------------------|
B|------1-----1-----1-----1-----1-----1-----1-----1---|
G|------0-----0-----0-----0-----0-----0-----0-----0---|
D|---------2-----------2-----------2-----------2------|
A|---3-----------3-----------3-----------3------------|
E|----------------------------------------------------|
           i used to have a yellow ring
                                   around the color of my

e|----------------------------------------------------|
B|------1-----1-----1-----1-----1-----1-----1-----1---|
G|------2-----2-----2-----2-----2-----2-----2-----0---|
D|---------2-----------2-----------2-----------2------|
A|---0-----------0-----------0-----------0------------|
E|----------------------------------------------------|
     eye

e|------------1-----------1-----------1---------------|
B|------1-----1-----1-----1-----1-----1-----1-----0---|
G|------2-----2-----2-----2-----2-----2-----2---------|
D|---3-----3-----3-----3-----3-----3-----3-----3------|
A|----------------------------------------------------|
E|----------------------------------------------------|
           but now it's gone and all that's left is

e|---3-----------1-----------3-----1-----0------------|
B|---0-----------------------------------------3------|
G|---0------------------------------------------------|
D|---0------------------------------------------------|
A|---2------------------------------------------------|
E|---3------------------------------------------------|
     blue                    blue  blue  blue  blue


- play chorus twice
- play chorus-riff with lyrics "oh oh oh oh..."


FINAL CHORUS:

e|----------------------------------------------------|
B|------1-----1-----1-----1-----1-----1-----1-----1---|
G|------2-----2-----2-----2-----2-----2-----2-----0---|
D|---------2-----------2-----------2-----------2------|
A|---0-----------0-----------0-----------0------------|
E|----------------------------------------------------|
     oh                the devil and me     we're playing

                                   (start slowing down)
e|----------------------------------------------------|
B|------1-----1-----1-----1-----1-----1-----1-----1---|
G|------2-----2-----2-----2-----2-----2-----2-----2---|
D|---------3-----------3-----------3-----------3------|
A|---3-----------3-----------3-----------3------------|
E|----------------------------------------------------|
     games          we shouldn't be            k  i

    (slow)
e|----------------------------------------------------|
B|---------1-----------1-----------1------------------|
G|---------0-----------0-----------0------------------|
D|---2------------------------------------------------|
A|---------------3-----------3------------------------|
E|----------------------------------------------------|
     s     s     i     n     g                 way up

    (slow)
e|----------------------------------------------------|
B|----------------------------------------------------|
G|----------------------------------------------------|
D|----------------------------------------------------|
A|----------------------------------------------------|
E|---0------------------------------------------------|
     and a-round my...                           tree-

THE ENDING:

    (slow & quite)
e|----------------------------------------------------|
B|------1-----1-----1-----1-----1-----1-----1---------|
G|------2-----2-----2-----2-----2-----2-----2------2--|
D|---------2-----------2-----------2-----------0-2----|
A|---0-----------0-----------0-----------0------------|
E|----------------------------------------------------|
    -ee

e|------0---------------------------------------------|
B|-----1----------------------------------------------|
G|----2-----------------------------------------------|
D|----------------------------------------------------|
A|---0------------------------------------------------|
E|----------------------------------------------------|

===============================================================================
Добавлено: 14.03.2012
Другие материалы по этой песне:
  • Аккорды и текст

Страница создана 14.03.2012
http://primanota.ru/asaf-avidan-and-the-mojos/the-devil-and-me-chords.htm
Привет, Гость.
Предлагаем пройти революционный курс по гитаре.
Подарок от PrimaNota.Ru, забирай!