PrimaNota.ru - самый крупный в мире бесплатный архив песенных текстов, аккордов, табулатур и нот


Asaf Avidan And The Mojos - Sailors Are We - аккорды и текст, видео

Регистрация Запомнить меня
Войти через:  Facebook Google Twitter Vk Yandex Mail.ru

Asaf Avidan And The Mojos - Sailors Are We - аккорды и текст, видео

Печатать
Просмотров: 103
Sailors Are We
Asaf Avidan And The Mojos
Sailors Are We - by Asaf Avidan and the Mojos.

The song has many Guitar and Cello parts that mix together, I've tabed the main Guitar 
parts and got the Chords here.



Main Riff / Intro

     Em                            Cm
e------------------------------------3-X-X-3---|
B---8/X-------------8/X--------------4-X-X-4---|
G---9/X-------------9/X--------------5-X-X-5---|
D---9/X-------------9/X--------------5-X-X-5---|
A---7/X---2---------7/X-----2------3-3-X-X-3---|
E-----------3B5--0------------3B5--------------|
 Cm                                 Em
e--11p10h11--8p7h8-----------------------------|
B------------------8p7h8------------8/X--------|
G------------------------8p7h8--9---9/X--------|
D-----------------------------------9/X--------|
A-----------------------------------7/X--------|
E----------------------------------------------|

     Em                       Cm
e---------------------------------8p7h8----------------------------|
B-------------8/X-------------4---------8p7h8----------------------|
G-------------9/X-------------5--------------8p7h8-5p4h5-4-5-8-8\9-|
D-------------9/X-------------5------------------------------------|
A-------------7/X-----2-------3------------------------------------|
E----3B5---0------------3b5----------------------------------------|

Verse 1:
Em
Hey there! You dirty old swines!
Cm
Better tighten them ropes, and steardy them lines!

Em
Hark now! You see-loving knaves!
Cm
Poseidon's awake and he's rolling them waves!

Chorus:

Em
I said Hey! (Sir!) Boys! (What?!) What do you got?
e-----------------------------------------|
B-------------8/X-----------------8/X-----|
G-------------9/X-----------------9/X-----|
D-------------9/X-----------------9/X-----|
A-------------7/X-----------------7/X-----|
E-----------------------------------------|
Cm
A ship that will break and a body that'll rot!

*Lick 1:
e--11p10h11--8p7h8----------------|
B------------------8p7h8----------|
G------------------------8p7h8--9-|

Em
I said Hey!(Sir!) Men! Yeah! Why do we row?
e-----------------------|
B-------------8/X-------|
G-------------9/X-------|
D-------------9/X-------|
A-------------7/X-------|
E-----------------------|
Cm
Cause sailors are we and it's sailing we know!

Main Riff + this lick in the end:
*Lick 2:
Pm:- - - - - - - - -  - - - -
e--------------8-8-8--7-7-7--------|
B--------8-8-8--------------8------|
G--8-8-8---------------------------|



Verse 2:
Em
Hey lads! Better steardy them legs!
Cm
Drink to your health and empty them kegs!

*Lick 3:
e---10-9---9-8-7--

Em
Let the yardarms stay bare! Take out the oars!
Cm
Make your backs full of hurt and your hands full of sores!

Chorus 2:

Em
I said Hey! (Sir!) Boys! (What?!) What do you got?
e-----------------------|
B-------------8/X-------|
G-------------9/X-------|
D-------------9/X-------|
A-------------7/X-------|
E-----------------------|
Cm
A ship that will break and a body that'll rot!

Lick 4:
e--8-10--11-11--10-10--8-8--7-8-7

Em
I said Hey!(Sir!) Men! Yeah! Why do we row?
e-----------------------------------------|
B-------------8/X-----------------8/X-----|
G-------------9/X-----------------9/X-----|
D-------------9/X-----------------9/X-----|
A-------------7/X-----------------7/X-----|
E-----------------------------------------|
Cm
Cause sailors are we and it's sailing we know!

*Lick 1.

Main riff + Solo

Starts at the end of the first part part:
e---------------------------------------------------------------------|
B--------8p7h8--------8p7h8---------7-7\8~-8-7-8--7h8-7---------------|
G--7h8p7--------7h8p7-------8p7h8------------------------8\7-5--5-7---|
D---------------------------------------------------------------------|
A---------------------------------------------------------------------|
E---------------------------------------------------------------------|

e-------------------8p7h8-11-10--10-11-12--13--14--15~---12-13-14-15~~-|
B-------------8p7h8----------------------------------------------------|
G-4p5h4-8p7h8----------------------------------------------------------|
D----------------------------------------------------------------------|
A----------------------------------------------------------------------|
E----------------------------------------------------------------------|

e-11p10h11-11p10h11-11p10h11-11p10h11-8p7h8-8p7h8-8p7h8-8p7h8-7~-----|
B--------------------------------------------------------------------|
G--------------------------------------------------------------------|
D--------------------------------------------------------------------|
A--------------------------------------------------------------------|
E--------------------------------------------------------------------|


e-----7-8-10-8-7--11-11-10-10-8-8-7-7--------------------------------|
B---8---------------------------------8-8-7-7-5-5-3-3----------------|
G-8------------------------------------------------------------------|
D--------------------------------------------------------------------|
A--------------------------------------------------------------------|
E--------------------------------------------------------------------|


Bridge:

 B
e-------------------------------|
B-------------------------------|
G-4-4--x--6-6--x--7-7--x--9-9---|
D-x-x--x--x-x--x--x-x--x--x-x---|
A-2-2--x--4-4--x--5-5--x--7-7---|
E-------------------------------|

  A
e-------------------------------|
B-------------------------------|
G-6-6--x--7-7--x--9-9--x--12-11-|
D-x-x--x--x-x--x--x-x--x--x--x--|
A-4-4--x--5-5--x--7-7--x--10-9--|
E-------------------------------|

Row Row ......


repeat that a few times

outro:

EM CM
lots of Guitar piano and Cello here...

that's it!
enjoy
Добавлено: 23.04.2012
Другие материалы по этой песне:
  • Аккорды и текст

Страница создана 23.04.2012
http://primanota.ru/asaf-avidan-and-the-mojos/sailors-are-we-chords.htm
Привет, Гость.
Предлагаем пройти революционный курс по гитаре.
Подарок от PrimaNota.Ru, забирай!