PrimaNota.ru - самый крупный в мире бесплатный архив песенных текстов, аккордов, табулатур и нот


Asaf Avidan And The Mojos - Hoist Up The Colors - таба, видео

Регистрация Запомнить меня
Войти через:  Facebook Google Twitter Vk Yandex Mail.ru

Asaf Avidan And The Mojos - Hoist Up The Colors - таба, видео

Печатать
Просмотров: 182
Hoist up the Colors - by Asaf Avidan And The Mojos.

the song is in standard tuning (EADGBe)
there are two guitar parts, the first one plays the main riff and some power chords and 
the 2nd one plays all the solo parts.

Main riff\Intro
(Played with palm mute)
Pm -  -  -  -  -  -  -   -
e-----------------------------|
B-----------------------------|
G-----------------------------|
D------------------------5----|
A--------0--7--------0--------|
E--0--5--------0--5-----------|


Verse 1: (play the main riff)

Cut. Cut away. Let the axes fly
Let a'loose them ropes and everything dry
Leave the scars of the land far away ashore
Let the strumpets cry like the waves will roar

**(stop here with a A note and then keep it going with the riff in the next part)

Let the pall dispurse. Let them see our stern
Pray we nay be moored, pray our names be earned
Let our bildge grow damp, let our futtocks crack
May our Bows be strong, and the winds at our back

Chorus :

A            C
Lucky fools! Hoist up them Colors!!
A            C
Lucky fools! Hoist up them Colors!!

solo (Play in while the a chord is played)
e-------------------17------------------------17----|
B----17-20-17----17----20----17-20-17----17------20-|
G-17----------17----------17----------17------------|
D---------------------------------------------------|
A---------------------------------------------------|
E---------------------------------------------------|

Verse 2: (main riff)
Bring the anchor up, up, let the sails roll down
Let them rats grow old, may we hang or drown
Let the swell grow high. Nay we stillness feel
Let the fathoms wail down below our keel

Set! Set a'sail. Let the landlubbers stay
Leave this Cradle of Dirt to the Ocean's spray
Let the skies and seas be our only friends
Let our journeys start, long before it ends!

Chorus 2 :

A            C
Lucky fools! Hoist up them Colors!!
A            C
Lucky fools! Hoist up them Colors!!

**(same solo here, but just keep playing in all and chorus)

outro:

First guitar:
 C         C       A       A
e----------------------------------|
B----------------------------------|
G-5-5-5----5-5-5---2-2-2---2-2-2---|
D-5-5-5----5-5-5---2-2-2---2-2-2---|
A-3-3-3----3-3-3---0-0-0---0-0-0---|
E----------------------------------|

2nd guitar:
  C                           C
e------------------------------------------------------|
B---11--11---------------------11--11------------------|
G-----------10--10--9---9--------------10--10--9---9---|
D---10--10--10--10--10--10-----10--10--10--10--10--10--|
A------------------------------------------------------|
E------------------------------------------------------|
  A                            A
e-----------------------------------------------------|
B---8--8--7--7-----------------8--8--7--7-------------|
G---------------5--5-----------------------5--5-------|
D---7--7--7--7--7--7-----------7--7--7--7--7--7-------|
A-----------------------------------------------------|
E-----------------------------------------------------|

**(keep doing that a few times, and keep it when and words come)

C C C     C C  C   A A A             A A A
Take the fates... back to our hands! back to our hands!
C C C     C C  C   A A A             A A A
Take the fates... back to our hands! back to our hands

Ending solo
e----------------------------------------------------------------------|
B------11------------11---------8--8--7--7------------8--8--7--7-------|
G-8-10----10-8~--8-10----10-8~--------------5--5------------------5--5-|
D-------------------------------7--7--7--7--7--7------7--7--7--7--7--7-|
A----------------------------------------------------------------------|
E----------------------------------------------------------------------|

that's it.

enjoy
Добавлено: 06.03.2012
Другие материалы по этой песне:
  • Аккорды и текст

Страница создана 06.03.2012
http://primanota.ru/asaf-avidan-and-the-mojos/hoist-up-the-colors-chords.htm
Привет, Гость.
Предлагаем пройти революционный курс по гитаре.
Подарок от PrimaNota.Ru, забирай!