PrimaNota.ru - самый крупный в мире бесплатный архив песенных текстов, аккордов, табулатур и нот


Asa - Vaaranmaa - таба, видео

Регистрация Запомнить меня
Войти через:  Facebook Google Twitter Vk Yandex Mail.ru

Asa - Vaaranmaa - таба, видео

Печатать
Просмотров: 110
e -------------------------------------------------------------------|
h ----------6---------------------5---------6-------------------5----|
G ------------7-----------------6-------------7-------------------6--|
D ------7-------7-------7-----6---------7-------7-------7-----6------|
A --5---------------5-------4-------5---------------5-------4--------|
E -------------------------------------------------------------------|

e -------------------------------------------------------------------|
h -------------------------------------------------------------------|
G ----------7-------------------6-----------7------------------------|
D ------------8-------------------7-----------8-------8---5---7---5--|
A ------8-------8-------8-----7---------8-------8-------5-------5----|
E --6---------------6-------5-------6---------------6-------6--------|
Добавлено: 23.06.2013
Другие материалы по этой песне:
  • Аккорды и текст

Страница создана 23.06.2013
http://primanota.ru/asa/vaaranmaa-chords.htm
Привет, Гость.
Предлагаем пройти революционный курс по гитаре.
Подарок от PrimaNota.Ru, забирай!