PrimaNota.ru - самый крупный в мире бесплатный архив песенных текстов, аккордов, табулатур и нот


As It Is - Speak Soft - таба, бас-таба, видео

Регистрация Запомнить меня
Войти через:  Facebook Google Twitter Vk Yandex Mail.ru

As It Is - Speak Soft - таба, бас-таба, видео

Печатать
Просмотров: 102
-------------------------------------------------------------------------------
                             Speak soft - /\\\\
------------------------------------------------------------------------------
Tabbed by: Emily Hill (with help  by dean rudolph)

E-mail: emily.hill12@icloud.com PLEASE EMAIL WITH QUESTIONS!!
 
Tuning:  (DROP D) D A D G B E

WHY SHOULD I STICK AROUND WHEN.....
e|---------------------------------------------------------------------------|
B|---------------------------------------------------------------------------|
G|---------------------------------------------------------------------------|
D|---0-----------------------------------------------------------------------|
A|---0-----------------------------------------------------------------------|
D|---0-----------------------------------------------------------------------|


PRE CHORUS 2X  (Lead guitar solo would be here *below*)

(This helps if you listen for the cord changes in the song)
e|---------------------------------------------------|
B|---------------------------------------------------|
G|---------------------------------------------------|
D|---------------------------------------------------|
A|--5--------------7-7------9-----------4-4----------|
D|--5--------------7-7------9-----------4-4----------|
    *              * *      *           * *
    1 2 3 4    1 2 3 +      + 2 3 4 1 2 3 +   


VERSE - RHYTHM GUITAR 
e|---------------------------------------------------------------------------|
B|---------------------------------------------------------------------------|
G|---------------------------------------------------------------------------|
D|---------------------------------------------------------------------------|
A|---5------------------9-----------5-------9-------------7------44----------|
D|---5------------------9-----------5-------9-------------7------44----------|
     *                  *           *       *             *      **
VERSE - LEAD GUITAR
e|---------------------------5-----------------------------------------------------|
B|------------------------5------7------------------5--7--5------------------------|
G|---7--------------6-7-------------------------7------------7-7-------------------|
D|--------------7----------------------------7-------------------------------------|
A|---5-----------------------------------------------------------------------------|
D|---------------------------------------------------------------------------------|
    *(9)

e|----------------5-----------------------------------------------------------|
B|------------5------7--------5------------------------10---------------------|
G|-----6-7----------------------------6-7-------------------------------------|
D|--7-------------------------------------------------------------------------|
A|----------------------------------------------------------------------------|
D|----------------------------------------------------------------------------|

(pre chorus)       


e|-------------------|
B|-------------------|
G|-------------------|
D|-------------------|
A|-------0-----------|
D|-------0-----------|


CHORUS
e|---------------------------------------------------------------------------|
B|---------------------------------------------------------------------------|
G|---------------------------------------------------------------------------|
D|---------------------------------------------------------------------------|
A|--5---------------9------------7-------5-----------9---------7-------------|
D|--5---------------9------------7-------5-----------9---------7-------------|

e|-------------------------------------------------------|
B|-------------------------------------------------------|
G|-------------------------------------------------------|
D|-------------------------------------------------------|
A|-----0--------------------0----------------------------|
D|-----0--------------------0----------------------------|


 (VERSE) (PRE CHORUS) (CHORUS) (PRE CHORUS/SOLO)



 LEAD GUITAR INTRO/SOLO -PLAY AS OCTAVES-  2X     SOLO 1ST ENDING
e|---------------------------------------------|-----------------------------|
B|---------------------------------------------|-----------------------------|
G|---------------------------------------------|-----------------------------|
D|---------------------------------------------|-----------------------------|
A|----12/14---12--12-------------9/10-----9----|-5-5-5-5-7-------------------|
D|---------------------------------------------|-----------------------------|


SOLO 2ND ENDING                    
e|-------------------------------|
B|-------------------------------|
G|-------------------------------|
D|-------------------------------|
A|----17-17-17-17--16------------|
D|-------------------------------|


BRIDGE 4X
e|-------0---------------0--------------------------------5------------------|
B|---------3---------------3--------------7-----------------5----------------|
G|-----------2---------------2--------------9-----------------7--------------|
D|--0---------------0--------------------------------------------------------|
A|--0---------------0-----------------9---------------7----------------------|
D|--0---------------0-----------------9---------------7----------------------|

2X
e|-------------------------------------------|
B|-------------------------------------------|
G|-------------------------------------------|
D|-------------------------------------------|
A|----0--------------9--------7--------------|
D|----0--------------9--------7--------------|
      *              *        *

(CHORUS 4x) 


last note
e|-------------------------------------|
B|-------------------------------------|
G|-------------------------------------|
D|------7------------------------------|
A|------7------------------------------|
D|------7------------------------------|




************************************

| /   slide up
| \   slide down
| h   hammer-on
| p   pull-off
| ~   vibrato
| +   harmonic
| x   Mute note
| b   Bend
| pb  Pre-bend
| br  Bend release
| pbr Pre-bend release
| brb Bend release bend

************************************
Добавлено: 22.10.2015
Другие материалы по этой песне:

Страница создана 22.10.2015
http://primanota.ru/as-it-is/speak-soft-chords.htm
Привет, Гость.
Предлагаем пройти революционный курс по гитаре.
Подарок от PrimaNota.Ru, забирай!