PrimaNota.ru - самый крупный в мире бесплатный архив песенных текстов, аккордов, табулатур и нот


As It Is - My Oceans Were Lakes - аккорды и текст, таба, видео

Регистрация Запомнить меня
Войти через:  Facebook Google Twitter Vk Yandex Mail.ru

As It Is - My Oceans Were Lakes - аккорды и текст, таба, видео

Печатать
Просмотров: 106
My Oceans Were Lakes
As It Is
As It Is-My Oceans were lakes

Tuning:Standard

CAPO:1
//This tab is a bit diferrent from the original but i think it still works!

Intro/Verse/Chorus
E|---------------------------------------------------------
B|--------3----------------3-------------------------3-----
G|------0---0-2----------0-----------------------0/2---2-0-
D|-------------------0-4------------5-4-0------------------
A|-----------------5-------------------------3-3-----------
E|----3-------------------------0-0------------------------

Verse(ending)
E|--------------------------------------------------------------------------------
B|--------------------------------------------------------------3-----------------
G|-----0--------0-----------0--------0--------------0--------0-----------0-----0--
D|--------2--4-----2-----------2--4-----2--------------2--4-----------------------
A|-----------------------3--------------------------------------------------0-----
E|--0--------------------------------------------3--------------------3-----------

E|-----------------------------------------------------------
B|--------------------------------------------------------3--
G|-----0--------0-----------0--------0--------------0--2-----
D|--------2--4-----2-----------2--4-----2--------4-----------
A|-----------------------3-----------------------------------
E|--0--------------------------------------------------------

Chorus(Piano part)
E|--3--2--3--7--5-----2--3--2--3--7--5--
B|--------------------------------------
G|--------------------------------------
D|--------------------------------------
A|--------------------------------------
E|--------------------------------------

Bridge(Guitar1)
E|---------------10--
B|-----10--8---------
G|--7----------------
D|-------------------
A|-------------------
E|-------------------

Bridge(Guitar2)
E|--------------------------------------------------
B|--------------------------------------------------
G|--------------------------------------------------
D|-----7--5-----9-----------5--5-----5--5-----5--5--
A|--5--------5--------3--3--------3--------3--------
E|--------------------------------------------------

Solo:
E|------------------10------------------------10---------------10--
B|--------10--8---------8--10--7--8---------------8--8--10--8------
G|--7--7---------7----------------------7--7-----------------------
D|-----------------------------------------------------------------
A|-----------------------------------------------------------------
E|-----------------------------------------------------------------

E|--10--10--10--8--8--8--7--7--7-------------------------7--7--7-----------------------7--7--7--------------
B|--------------------------------8--8--8--10--10--8--8-----------8--8--8--10--10--10-----------8--8--8--8--
G|----------------------------------------------------------------------------------------------------------
D|----------------------------------------------------------------------------------------------------------
A|----------------------------------------------------------------------------------------------------------
E|----------------------------------------------------------------------------------------------------------

E|--------10--7-----8--7---------
B|--8--8---------8--------10--8--
G|-------------------------------
D|-------------------------------
A|-------------------------------
E|-------------------------------

Ending:
E|-----10-------------------------------------10---------
B|--8------8--10--7--8--8--7-----------8/10------10/8--
G|----------------------------7--------------------------
D|-------------------------------9-----------------------
A|-------------------------------------------------------
E|-------------------------------------------------------

Verse 1:

G               D
More thought is less than said
E               C
More thought inside my head
G               D
Hard times and violent times
E               C
Closed eyes and still framed minds
G                   D
Cause all thoughts, hate modern words
E              C
It's not just, the truth that hurts
G          D    
Scars heal, but never stray
E         C             E C G 
Well I see another day
G  A   E        C D
Another day

Chorus:
D                     G  D          E    C
I'm starting to see my oceans were lakes
                      G  D          E    C
I'm starting to see my...
                      G  D          E    C
I'm starting to see my oceans were lakes
                      G  D          E    C
I'm starting to see my...

Verse 2:
G           D
Before and aftermath
E               C
Lost cause down countless paths
G               D
Loose grips and handlebars
E             C
Dull glow of lesser stars
G             D
I fall short, with every mile
E                 C
With fist fights, in single file
G           D
If all this, just washed away
E           C               E C G 
Would I see, a brand new day
G A         E   C D
A brand new day

Chorus:
D                     G  D          E    C
I'm starting to see my oceans were lakes
                      G  D          E    C
I'm starting to see my...
                      G  D          E    C
I'm starting to see my oceans were lakes
                      G  D          E    C
I'm starting to see my...

Bridge:
D E C

Chorus:
D                     G  D          E    C
I'm starting to see my oceans were lakes
                      G  D          E    C
I'm starting to see my...
                      G  D          E    C
I'm starting to see my oceans were lakes
                      G  D          E    C
I'm starting to see my...
Добавлено: 22.10.2015
Вам также может быть интересно:
Другие материалы по этой песне:
  • Аккорды и текст

Страница создана 15.09.2015
http://primanota.ru/as-it-is/my-oceans-were-lakes-chords.htm
Привет, Гость.
Предлагаем пройти революционный курс по гитаре.
Подарок от PrimaNota.Ru, забирай!