PrimaNota.ru - самый крупный в мире бесплатный архив песенных текстов, аккордов, табулатур и нот


As I Lay Dying - When This World Fades - текст песни, бас-таба, видео

Регистрация Запомнить меня
Войти через:  Facebook Google Twitter Vk Yandex Mail.ru

As I Lay Dying - When This World Fades - текст песни, бас-таба, видео

Печатать
Просмотров: 170
Уроки эстрадного вокала в Санкт-Петербурге
As I Lay Dying - When This World Fades (a softer song from AILD but its great)
From the album Beneath the Encasing of Ashes

bass starts at 0:12
G|---------------------------------|
D|---------------------------------|
A|---------------------------------|
D|-9-9-9-9-9-9-9-9-5-5-5-5-5-5-5-5-|

G|----------------------------------|
D|----------------------------------|
A|-------------10-10-10-10-10-10-10-|
D|-9-9-9-9-9-9----------------------|

G|---------------------------------|
D|---------------------------------|
A|---------------------------------|
D|-9-9-9-9-9-9-9-9-5-5-5-5-5-5-5-5-|  x7

G|----------------------------------|
D|----------------10-10-10-10-10-10-|
A|----------------------------------|
D|-9-9-9-9-9-9-9--------------------|

G|---------------------------------|
D|---------------------------------|
A|---------------------------------|
D|-9-9-9-9-9-9-9-9-5-5-5-5-5-5-5-5-|


Listen to the song for the timing
Добавлено: 13.04.2012
Другие материалы по этой песне:

Страница создана 13.04.2012
http://primanota.ru/as-i-lay-dying/when-this-world-fades-chords.htm
Привет, Гость.
Предлагаем пройти революционный курс по гитаре.
Подарок от PrimaNota.Ru, забирай!