PrimaNota.ru - самый крупный в мире бесплатный архив песенных текстов, аккордов, табулатур и нот


As I Lay Dying - Truth Of My Perception - текст песни, таба, бас-таба, видео

Регистрация Запомнить меня
Войти через:  Facebook Google Twitter Vk Yandex Mail.ru

As I Lay Dying - Truth Of My Perception - текст песни, таба, бас-таба, видео

Печатать
Просмотров: 238
yea so i was sick of waiting again so i tabbed this out in like 30 min haha
m sounds 99.9% accurate if ur good and play it right....(tip: play it slow
at first then speed it up)

I also did the empty hearts solo...look for it

rate it if its good

thanks




|-------------------------------12-----------------|
|-----------------10-13----------------------------|
|--10p9p7-------7-------10-9-10--------------------|
|---------7----------------------------------------|
|-----------8-7------------------------------------|
|--------------------------------------------------|





|--17-18--15-17--13-15--13p12p9h12-------------12--|
|----------------------------------13-11-10-11-----|
|--------------------------------------------------|
|--------------------------------------------------|
|--------------------------------------------------|
|--------------------------------------------------|




|--------------------------------------------------|
|--------------------------------------------------|
|-----14-15-14-------------------------------------|
|--12----------17-15-14-15-14-12-14b15r------------|
|--------------------------------------------------|
|--------------------------------------------------|




 really fast.........
|-------------------------------------------------------------|
|-------------------------------------------------------------|
|--14-12-14-15-14-12--15-14-15-17-15-14--17-15-17-19-17-15----|
|-------------------------------------------------------------|
|-------------------------------------------------------------|
|-------------------------------------------------------------|





|---------------------------20-------20----------13p12p10h12-----|
|--17-15-13-15-17-18--18-17----17-18------15b17--------------10--|
|----------------------------------------------------------------|
|----------------------------------------------------------------|
|----------------------------------------------------------------|
|----------------------------------------------------------------|






|-------------------------------------------------|
|--15-13----13------------------------------------|
|--------15----15-14-15-14-12--14-12--------------|
|------------------------------------15-14-15-----|
|-------------------------------------------------|
|-------------------------------------------------| 
                        sorry these 2 are supposed to be one line
|-------------------------------------------------|
|-------------------------------------------------|
|----------------14-12---------15-14-15-17b--19\--|
|------------------------15-14--------------------|
|-------------------------------------------------|
|-------------------------------------------------|
Добавлено: 30.07.2012
Другие материалы по этой песне:

Страница создана 07.03.2012
http://primanota.ru/as-i-lay-dying/truth-of-my-perception-chords.htm
Привет, Гость.
Предлагаем пройти революционный курс по гитаре.
Подарок от PrimaNota.Ru, забирай!