PrimaNota.ru - самый крупный в мире бесплатный архив песенных текстов, аккордов, табулатур и нот


As I Lay Dying - Shadows Are Security (album) - таба, видео

Регистрация Запомнить меня
Войти через:  Facebook Google Twitter Vk Yandex Mail.ru

As I Lay Dying - Shadows Are Security (album) - таба, видео

Печатать
Просмотров: 181
              OK this isnt all mine I copied and pasted butI thought they needed an 
one so I did it  If you see peoples names on here give them credit not me.


MEANING IN TRAGEDY
                          As recorded by As I Lay Dying
                   (From the 2005 Album SHADOWS ARE SECURITY)
                     Copyright (c) Metal Blade Records 2005

Transcribed by Daniel de la Rosa (MeloDeath) the_jesters_Dance@yahoo.com

Version 1.0 June 2005

Tunnings:
Gtr I (C G C F A D) - '1'
Gtr II (C G C F A D) - '2'
Gtr III (C G C F A D) - '3'

 Intro
  Q=177
 4/4
  Gtrs I, II
    PM    PM  PM    PM        PM  PM    PM    PM  PM     PM         PM
|-----------------|-----------------|-----------------|--------------------|
|-----------------|-----------------|-----------------|--------------------|
|-----------------|---------2-------|-----------------|-----------2--------|
|-3---2-----------|---5-3-5-----5---|-3---2-----------|-----3-2-3-----5----|
|-------3---0---1-|-----------------|-------3---0---1-|--------------------|
|---0-----0---0---|-0---------0---0-|---0-----0---0---|--0----------0---0--|
|
| Gtr III
|-----------------|-----------------|-----------------|--------------------|
|-----------------|-----------------|-----------------|--------------------|
|-----------------|-----------------|-----------------|--------------------|
|-3---------7---8-|-----------------|-3---------7---5-|-(5)-------3--------|
|-3---------7---8-|-----------------|-3---------7---5-|-(5)-------3--------|
|-3---------7---8-|-----------------|-3---------7---5-|-(5)-------3--------|


  Gtrs I, II
    PM     PM  PM    PM        PM  PM    PM     PM  PM     PM         PM
|------------------|-----------------|------------------|-------------------|
|------------------|-----------------|------------------|-------------------|
|------------------|---------2-------|------------------|-----------2-------|
|-3---2------------|---5-3-5-----5---|-3---2------------|-----3-2-3-----5---|
|--------3---0---1-|-----------------|--------3---0---1-|-------------------|
|---0------0---0---|-0---------0---0-|---0------0---0---|--0----------0---0-|
|
| Gtr III
|------------------|-----------------|------------------|-------------------|
|------------------|-----------------|------------------|-------------------|
|------------------|-----------------|------------------|-------------------|
|-3-----10---7---8-|-----------------|-3-----10---7---5-|-(5)-------3-------|
|-3-----10---7---8-|-----------------|-3-----10---7---5-|-(5)-------3-------|
|-3-----10---7---8-|-----------------|-3-----10---7---5-|-(5)-------3-------|


 Verse
  Gtr I
    PM    PM  PM    PM         PM  PM    PM    PM  PM    PM         PM
|-----------------|------------------|-----------------|------------------|
|-----------------|------------------|-----------------|------------------|
|-----------------|----------2-------|-----------------|----------2-------|
|-3---2-----------|---5-3-5------5---|-3---2-----------|---3-2-3------5---|
|-------3---0---1-|------------------|-------3---0---1-|------------------|
|---0-----0---0---|-0----------0---0-|---0-----0---0---|-0----------0---0-|
|
| Gtr II
|   PM    PM  PM    PM         PM  PM    PM    PM  PM    PM         PM
|-----------------|------------------|-----------------|------------------|
|-----------------|------------------|-----------------|------------------|
|-2---------------|------------------|-2---------------|---2-0-2----------|
|-----5-3---------|---2-0-2-/3---2---|-----5-3---------|---------/3---2---|
|-----------3---1-|------------------|-----------3---1-|------------------|
|---0-----0---0---|-0----------0---0-|---0-----0---0---|-0----------0---0-|


  Gtr I
        PM    PM  PM     PM           PM  PM
|---------------------|---------------------|
|---------------------|---------------------|
|---------------------|------------2--------|
|-3-------2-----------|-----5-3-5-------5---|
|-----------3---0---1-|---------------------|
|-------0-----0---0---|--0------------0---0-|
|
| Gtr II
|       PM    PM  PM     PM           PM  PM
|---------------------|---------------------|
|---------------------|---------------------|
|-2-------------------|---------------------|
|---------5-3---------|-----2-0-2-/3----2---|
|---------------3---1-|---------------------|
|-------0-----0---0---|--0------------0---0-|
|
| Gtr III
|---------------------|---------------------|
|-8b10================|=[8]r======(8)-------|
|---------------------|---------------------|
|---------------------|---------------------|
|---------------------|---------------------|
|---------------------|---------------------|


       PM     PM   PM       PM             PM
|-----------------------|------------------------|
|-----------------------|------------------------|
|-----------------------|----------------2-------|
|---3----2--------------|------3---2--3------5---|
|-----------3----0----1-|------------------------|
|------0------0----0----|---0--------------0---0-|
|
|      PM     PM   PM       PM             PM
|-----------------------|------------------------|
|-----------------------|------------------------|
|---2-------------------|------2---0--2----------|
|--------5--3-----------|---------------/3---2---|
|----------------3----1-|------------------------|
|------0------0----0----|---0--------------0---0-|
|
|                     ~~~~~~~~~          ~~
|-----------------------|------------------------|
|-/11-10-8-10-8---------|------------------------|
|---------------10-9-10-|-(10)---/12-10--9-------|
|-----------------------|------------------------|
|-----------------------|------------------------|
|-----------------------|------------------------|


  Gtrs I, II
       PM    PM  PM      PM         PM  PM    PM    PM  PM    PM        PM
|--------------------|--------------------|-----------------|-----------------|
|--------------------|--------------------|-----------------|-----------------|
|--------------------|------------2-------|-----------------|---------2-------|
|---3----2-----------|------5-3-5-----5---|-3---2-----------|---3-2-3-----5---|
|----------3---0---1-|--------------------|-------3---0---1-|-----------------|
|------0-----0---0---|---0----------0---0-|---0-----0---0---|-0---------0---0-|
|
| Gtr III
|--------------------|--------------------|-----------------|-----------------|
|--------------------|--------------------|-----------------|-----------------|
|-[12]---------------|-(12)---------------|-----------------|-----------------|
|--------------------|--------------------|-----------------|-----------------|
|--------------------|--------------------|-----------------|-----------------|
|--------------------|--------------------|-----------------|-----------------|


  Gtrs I, II
    PM    PM  PM    PM        PM  PM    PM    PM  PM    PM        PM
|-----------------|-----------------|-----------------|-----------------|
|-----------------|-----------------|-----------------|-----------------|
|-----------------|---------2-------|-----------------|---------2-------|
|-3---2-----------|---5-3-5-----5---|-3---2-----------|---3-2-3-----5---|
|-------3---0---1-|-----------------|-------3---0---1-|-----------------|
|---0-----0---0---|-0---------0---0-|---0-----0---0---|-0---------0---0-|


   Verse
    Gtr I
      PM    PM  PM    PM         PM  PM    PM    PM  PM    PM         PM
||------------------|------------------|-----------------|--------------------||
||o-----------------|------------------|-----------------|-------------------o||
||------------------|----------2-------|-----------------|----------2---------||
||--3---2-----------|---5-3-5------5---|-3---2-----------|---3-2-3------5-----||
||o-------3---0---1-|------------------|-------3---0---1-|-------------------o||
||----0-----0---0---|-0----------0---0-|---0-----0---0---|-0----------0---0---||
|
|   Gtr II
|     PM    PM  PM    PM         PM  PM    PM    PM  PM    PM         PM
||------------------|------------------|-----------------|--------------------||
||o-----------------|------------------|-----------------|-------------------o||
||--2---------------|------------------|-2---------------|---2-0-2------------||
||------5-3---------|---2-0-2-/3---2---|-----5-3---------|---------/3---2-----||
||o-----------3---1-|------------------|-----------3---1-|-------------------o||
||----0-----0---0---|-0----------0---0-|---0-----0---0---|-0----------0---0---||


 Bridge
  Gtrs I, II
|-----------------|-----------------|
|-----------------|-----------------|
|-7-7-7-7-7-7-7-7-|-7-7-7-7-7-7-7-7-|
|-----------------|-----------------|
|-5-5-5-5-5-5-5-5-|-5-5-5-5-5-5-5-5-|
|-----------------|-----------------|


|-------------------------|---------------------|
|-------------------------|---------------------|
|-14-14-14-14-14-14-14-14-|-12-12-12-12-9-9-9-9-|
|-------------------------|---------------------|
|-12-12-12-12-12-12-12-12-|-10-10-10-10-7-7-7-7-|
|-------------------------|---------------------|


 Pre-Verse
  Q=172
  Gtr I
  PM--|   PM--|     PM--|   PM---------|
|-----------------|--------------------|
|-----------------|--------------------|
|-----------------|--------------------|
|-----------------|--------------------|
|-0-0-0-5-0-0-0-8-|-0-0-0-7-0-0-0-10---|
|-0-0-0---0-0-0---|-0-0-0---0-0-0------|
|
| Gtr II
| PM--|   PM--|     PM--|   PM---------|
|-----------------|--------------------|
|-----------------|--------------------|
|-----------------|--------------------|
|-----------------|--------------------|
|-0-0-0---0-0-0---|-0-0-0---0-0-0------|
|-0-0-0---0-0-0---|-0-0-0---0-0-0------|


  PM--|   PM--|     PM-------------------------|   PM
|-----------------|----------------------------|
|-----------------|----------------------------|
|-----------------|----------------------------|
|-----------------|----------------------------|
|-0-0-0-5-0-0-0-8-|-0-0-0-7-0---8---7----------|
|-0-0-0---0-0-0---|-0-0-0---0-----------10-----|
|
| PM-------------------------------------------|
|-----------------|----------------------------|
|-----------------|----------------------------|
|-----------------|----------------------------|
|-----------------|----------------------------|
|-0-0-0-0-0-0-0-0-|-0-0-0-0-0-0-0-0-0-0--0-0---|
|-0-0-0-0-0-0-0-0-|-0-0-0-0-0-0-0-0-0-0--0-0---|


   Verse
    Gtrs I, II
    PM--|   PM------|     PM--|   PM-------------|
||----------------------|------------------------|
||o---------------------|------------------------|
||----------------------|------------------------|
||----------------------|------------------------|
||o-0-0-0-5-0-0-0-0-0-8-|-0-0-0-7-0-0-0-0-0-10---|
||--0-0-0---0-0-0-0-0---|-0-0-0---0-0-0-0-0------|


  PM--|   PM------|     PM---------------------|   PM
|---------------------|------------------------|
|---------------------|--------------------o---|
|---------------------|------------------------|
|---------------------|------------------------|
|-0-0-0-5-0-0-0-0-0-8-|-------7---8-7------o---|
|-0-0-0---0-0-0-0-0---|-5-5-5---8-----10-------|


  Gtr I
  PM------|   PM--|     PM------|   PM---------|
|---------------------|------------------------|
|---------------------|------------------------|
|---------------------|------------------------|
|---------------------|------------------------|
|-0-0-0-0-0-5-0-0-0-8-|-0-0-0-0-0-7-0-0-0-10---|
|-0-0-0-0-0---0-0-0---|-0-0-0-0-0---0-0-0------|
|
| Gtr II
| PM------|   PM--|     PM------|   PM---------|
|---------------------|------------------------|
|---------------------|------------------------|
|---------------------|------------------------|
|---------------------|------------------------|
|-0-0-0-0-0-5-0-0-0-8-|-0-0-0-0-0-7-0-0-0-10---|
|-0-0-0-0-0---0-0-0---|-0-0-0-0-0---0-0-0------|


  PM------|   PM--|     PM-----------------|   PM
|---------------------|--------------------|
|---------------------|--------------------|
|---------------------|--------------------|
|---------------------|--------------------|
|-0-0-0-0-0-5-0-0-0-8-|-------7---8-7------|
|-0-0-0-0-0---0-0-0---|-5-5-5---8-----10---|
|
| PM------|   PM--|     PM-----------------|   PM
|---------------------|--------------------|
|---------------------|--------------------|
|---------------------|--------------------|
|---------------------|-----------7-5------|
|-0-0-0-0-0-5-0-0-0-8-|-------7--------7---|
|-0-0-0-0-0---0-0-0---|-5-5-5---8----------|


  Gtr I
  PM--|   PM--|   PM    PM--|   PM-------------|   PM
|---------------------|------------------------|
|---------------------|------------------------|
|---------------------|------------------------|
|---------------------|------------------------|
|-0-0-0-5-0-0-0-0-0-8-|-0-0-0-7-0-0-0-0-0-10---|
|-0-0-0---0-0-0-0-0---|-0-0-0---0-0-0-0-0------|
|
| Gtr II
| PM--|   PM--|   PM    PM--|   PM-------------|   PM
|---------------------|------------------------|
|---------------------|------------------------|
|---------------------|------------------------|
|---------------------|------------------------|
|-0-0-0-5-0-0-0-0-0-8-|-0-0-0-7-0-0-0-0-0-10---|
|-0-0-0---0-0-0-0-0---|-0-0-0---0-0-0-0-0------|


  PM--|   PM--|   PM    PM-----------------|   PM
|---------------------|--------------------|
|---------------------|--------------------|
|---------------------|--------------------|
|---------------------|--------------------|
|-0-0-0-5-0-0-0-0-0-8-|-------7---8-7------|
|-0-0-0---0-0-0-0-0---|-5-5-5---8-----10---|
|
| PM--|   PM--|   PM
|---------------------|------------------|
|---------------------|------------------|
|---------------------|------------------|
|---------------------|-5-------8--------|
|-0-0-0-5-0-0-0-0-0-8-|-5-------8--------|
|-0-0-0---0-0-0-0-0---|-5-------8--------|


   Verse
    Q=177
    Gtrs I, II
      PM    PM  PM    PM        PM  PM    PM    PM  PM    PM        PM
||------------------|-----------------|-----------------|-------------------||
||o-----------------|-----------------|-----------------|------------------o||
||------------------|---------2-------|-----------------|---------2---------||
||--3---2-----------|---5-3-5-----5---|-3---2-----------|---3-2-3-----5-----||
||o-------3---0---1-|-----------------|-------3---0---1-|------------------o||
||----0-----0---0---|-0---------0---0-|---0-----0---0---|-0---------0---0---||


    Gtr I
      PM    PM  PM    PM         PM  PM    PM    PM  PM    PM         PM
||------------------|------------------|-----------------|--------------------||
||o-----------------|------------------|-----------------|-------------------o||
||------------------|----------2-------|-----------------|----------2---------||
||--3---2-----------|---5-3-5------5---|-3---2-----------|---3-2-3------5-----||
||o-------3---0---1-|------------------|-------3---0---1-|-------------------o||
||----0-----0---0---|-0----------0---0-|---0-----0---0---|-0----------0---0---||
|
|   Gtr II
|     PM    PM  PM    PM         PM  PM    PM    PM  PM    PM         PM
||------------------|------------------|-----------------|--------------------||
||o-----------------|------------------|-----------------|-------------------o||
||--2---------------|------------------|-2---------------|---2-0-2------------||
||------5-3---------|---2-0-2-/3---2---|-----5-3---------|---------/3---2-----||
||o-----------3---1-|------------------|-----------3---1-|-------------------o||
||----0-----0---0---|-0----------0---0-|---0-----0---0---|-0----------0---0---||


 Interlude
  Q=172
  Gtrs I, II
|-------------------------|-----------------|
|-------------------------|-----------------|
|-10-10-10-10-10-10-10-10-|-7-7-7-7-7-7-7-7-|
|-------------------------|-----------------|
|--8--8--8--8--8--8--8--8-|-5-5-5-5-5-5-5-5-|
|-------------------------|-----------------|


|-------------------------|-----------------|
|-------------------------|-----------------|
|-10-10-10-10-10-10-10-10-|-9-9-9-9-9-9-9-9-|
|-------------------------|-----------------|
|--8--8--8--8--8--8--8--8-|-7-7-7-7-7-7-7-7-|
|-------------------------|-----------------|


  Gtrs I, II
|-------------------------|-------------------------|
|-------------------------|-------------------------|
|-12-12-12-12-12-12-12-12-|-10-10-10-10-10-10-10-10-|
|-------------------------|-------------------------|
|-10-10-10-10-10-10-10-10-|--8--8--8--8--8--8--8--8-|
|-------------------------|-------------------------|


|-------------------------|-------------------------|
|-------------------------|-------------------------|
|-14-14-14-14-14-14-14-14-|-15-15-15-15-15-15-15-15-|
|-------------------------|-------------------------|
|-12-12-12-12-12-12-12-12-|-13-13-13-13-13-13-13-13-|
|-------------------------|-------------------------|


  Gtrs I, II
|-------------------------|-----------------|
|-------------------------|-----------------|
|-10-10-10-10-10-10-10-10-|-7-7-7-7-7-7-7-7-|
|-------------------------|-----------------|
|--8--8--8--8--8--8--8--8-|-5-5-5-5-5-5-5-5-|
|-------------------------|-----------------|


|-------------------------|-----------------|
|-------------------------|-----------------|
|-10-10-10-10-10-10-10-10-|-9-9-9-9-9-9-9-9-|
|-------------------------|-----------------|
|--8--8--8--8--8--8--8--8-|-7-7-7-7-7-7-7-7-|
|-------------------------|-----------------|


  Gtrs I, II
|-------------------------|-------------------------|
|-------------------------|-------------------------|
|-12-12-12-12-12-12-12-12-|-10-10-10-10-10-10-10-10-|
|-------------------------|-------------------------|
|-10-10-10-10-10-10-10-10-|--8--8--8--8--8--8--8--8-|
|-------------------------|-------------------------|
|
| Gtr III
|-------------------------|-------------------------|
|-------------------------|-------------------------|
|-------------------------|-------------------------|
|-------------------------|-------------------------|
|-------------------------|-------------------------|
|-------------------------|-------------------------|


|-------------------------|-------------------------|
|-------------------------|-------------------------|
|-14-14-14-14-14-14-14-14-|-15-15-15-15-15-15-15-15-|
|-------------------------|-------------------------|
|-12-12-12-12-12-12-12-12-|-13-13-13-13-13-13-13-13-|
|-------------------------|-------------------------|
|
|-------------------------|-------------------------|
|-------------------------|-------------------------|
|-------------------------|--------------9-----9-10-|
|-------------------------|--8--7--8-10----12-------|
|-------------------------|-------------------------|
|-------------------------|-------------------------|


 Verse
  Q=177
  Gtrs I, II
|-------------------------|-------------------------|
|-------------------------|-------------------------|
|-10-10-10-10-10-10-10-10-|-10-10-10-10-10-10-10-10-|
|-------------------------|-------------------------|
|--8--8--8--8--8--8--8--8-|--8--8--8--8--8--8--8--8-|
|-------------------------|-------------------------|
|
| Gtr III
|-------------------------|-------------------------|
|-------------------------|-------------------------|
|--0--0-12p=0--0-10p=0--0-|--9--7p=0-10p=0--0--9--5-|
|-------------------------|-------------------------|
|-------------------------|-------------------------|
|-------------------------|-------------------------|


|-------------------------|-------------------------|
|-------------------------|-------------------------|
|-12-12-12-12-12-12-12-12-|-12-12-12-12-12-12-12-12-|
|-------------------------|-------------------------|
|-10-10-10-10-10-10-10-10-|-10-10-10-10-10-10-10-10-|
|-------------------------|-------------------------|
|
|-------------------------|-------------------------|
|-------------------------|-------------------------|
|--0--0-12p=0--0-10p=0--0-|--9--7p=0-10p=0--0--9--5-|
|-------------------------|-------------------------|
|-------------------------|-------------------------|
|-------------------------|-------------------------|


  Gtrs I, II
|-------------------------|-------------------------|
|-------------------------|-------------------------|
|-15-15-15-15-15-15-15-15-|-15-15-15-15-15-15-15-15-|
|-------------------------|-------------------------|
|-13-13-13-13-13-13-13-13-|-13-13-13-13-13-13-13-13-|
|-------------------------|-------------------------|
|
| Gtr III
|-------------------------|-------------------------|
|-------------------------|-------------------------|
|--0--0-12p=0--0-10p=0--0-|--9--7p=0-10p=0--0--9--5-|
|-------------------------|-------------------------|
|-------------------------|-------------------------|
|-------------------------|-------------------------|


|-------------------------|-------------------------|
|-------------------------|-------------------------|
|-14-14-14-14-14-14-14-14-|-14-14-14-14-14-14-14-14-|
|-------------------------|-------------------------|
|-12-12-12-12-12-12-12-12-|-12-12-12-12-12-12-12-12-|
|-------------------------|-------------------------|
|
|-------------------------|-------------------------|
|-------------------------|-------------------------|
|--0--0-12p=0--0-10p=0--0-|--9--7p=0-10p=0--0--9--5-|
|-------------------------|-------------------------|
|-------------------------|-------------------------|
|-------------------------|-------------------------|


  Gtrs I, II
|-------------------------|-------------------------|
|-------------------------|-------------------------|
|-10-10-10-10-10-10-10-10-|-10-10-10-10-10-10-10-10-|
|-------------------------|-------------------------|
|--8--8--8--8--8--8--8--8-|--8--8--8--8--8--8--8--8-|
|-------------------------|-------------------------|
|
| Gtr III
|-------------------------|-------------------------|
|-------------------------|-------------------------|
|--0--0-12p=0--0-10p=0--0-|--9--7p=0-10p=0--0--9--5-|
|-------------------------|-------------------------|
|-------------------------|-------------------------|
|-------------------------|-------------------------|


|-------------------------|-------------------------|
|-------------------------|-------------------------|
|-12-12-12-12-12-12-12-12-|-12-12-12-12-12-12-12-12-|
|-------------------------|-------------------------|
|-10-10-10-10-10-10-10-10-|-10-10-10-10-10-10-10-10-|
|-------------------------|-------------------------|
|
|-------------------------|-------------------------|
|-------------------------|-------------------------|
|--0--0-12p=0--0-10p=0--0-|--9--7p=0-10p=0--0--9--5-|
|-------------------------|-------------------------|
|-------------------------|-------------------------|
|-------------------------|-------------------------|


  Gtrs I, II
|-------------------------|-------------------------|
|-------------------------|-------------------------|
|-15-15-15-15-15-15-15-15-|-15-15-15-15-15-15-15-15-|
|-------------------------|-------------------------|
|-13-13-13-13-13-13-13-13-|-13-13-13-13-13-13-13-13-|
|-------------------------|-------------------------|
|
| Gtr III
|-------------------------|-------------------------|
|-------------------------|-------------------------|
|--0--0-12p=0--0-10p=0--0-|--9--7p=0-10p=0--0--9--5-|
|-------------------------|-------------------------|
|-------------------------|-------------------------|
|-------------------------|-------------------------|


|-------------------------|-------------------------|
|-------------------------|-------------------------|
|-14-14-14-14-14-14-14-14-|-14-14-14-14-14-14-14-14-|
|-------------------------|-------------------------|
|-12-12-12-12-12-12-12-12-|-12-12-12-12-12-12-12-12-|
|-------------------------|-------------------------|
|
|-------------------------|-------------------------|
|-------------------------|-------------------------|
|--0--0-12p=0--0-10p=0--0-|--------------9-----9-10-|
|-------------------------|--8--7--8-10----12-------|
|-------------------------|-------------------------|
|-------------------------|-------------------------|


   Breakdown
    Q=172
    Gtr I
||----------------------|-----------------------|
||o---------------------|-----------------------|
||----------------------|-----------------------|
||----------------------|-----------------------|
||o-------------------5-|---------------------5-|
||--0-0-0-0-0-0-0-0-0---|--0--0-0-0-0-0-0-0-0---|
|
|   Gtr II
||----------------------|-----------------------|
||o---------------------|-----------------------|
||----------------------|-----------------------|
||--0-------------------|-(0)-------------------|
||o-0-------------------|-(0)-------------------|
||--0-------------------|-(0)-------------------|


|-----------------------|-----------------------||
|-----------------------|----------------------o||
|-----------------------|-----------------------||
|-----------------------|-----------------------||
|---------------------5-|-----8---7---8-7------o||
|--0--0-0-0-0-0-0-0-0---|--0----0---0-----10----||
|
|-----------------------|-----------------------||
|-----------------------|----------------------o||
|-----------------------|-----------------------||
|-(0)-------------------|-(0)-------------------||
|-(0)-------------------|-(0)------------------o||
|-(0)-------------------|-(0)-------------------||


    Gtrs I, II
||----------------------|---------------------|
||o---------------------|---------------------|
||----------------------|---------------------|
||----------------------|---------------------|
||o-------------------5-|-------------------5-|
||--0-0-0-0-0-0-0-0-0---|-0-0-0-0-0-0-0-0-0---|


|---------------------|---------------------||
|---------------------|--------------------o||
|---------------------|---------------------||
|---------------------|---------------------||
|-------------------5-|---8---7---8-7------o||
|-0-0-0-0-0-0-0-0-0---|-0---0---0-----10----||


 Outro
  Gtr I
  PM|               PM    PM|               PM
|-----------------------|-----------------------|
|-----------------------|-----------------------|
|-----10p7p0-10p7p0---7-|-----10p7p0-10p7p0---7-|
|-----------------------|-----------------------|
|-----------------------|-----------------------|
|-0-0---------------0---|-0-0---------------0---|
|
| Gtr II
| PM|               PM    PM|               PM
|-----------------------|-----------------------|
|-----------------------|-----------------------|
|------7p5p0--7p5p0-----|------7p5p0--7p5p0-----|
|---------------------7-|---------------------7-|
|-----------------------|-----------------------|
|-0-0---------------0---|-0-0---------------0---|


  PM|               PM    PM   PM  PM
|-----------------------|--------------------|
|-----------------------|--------------------|
|-----10p7p0-10p7p0---7-|---10---9---10-9----|
|-----------------------|-----------------10-|
|-----------------------|--------------------|
|-0-0---------------0---|-0----0---0---------|
|
| PM|               PM    PM   PM  PM
|-----------------------|--------------------|
|-----------------------|--------------------|
|------7p5p0--7p5p0-----|----7---5----7-5----|
|---------------------7-|------------------7-|
|-----------------------|--------------------|
|-0-0---------------0---|-0----0---0---------|


  Gtr I
|-----------------------|-----------------------|
|-----------------------|-----------------------|
|-----10p7p0-10p7p0---7-|-----10p7p0-10p7p0---7-|
|-----------------------|-----------------------|
|-----------------------|-----------------------|
|-0-0---------------0---|-0-0---------------0---|
|
| Gtr II
|-----------------------|-----------------------|
|-----------------------|-----------------------|
|-----------------------|-----------------------|
|------7p5p0--7p5p0-----|------7p5p0--7p5p0-----|
|---------------------5-|---------------------5-|
|-0-0---------------0---|-0-0---------------0---|


|-----------------------|--------------------|
|-----------------------|--------------------|
|-----10p7p0-10p7p0---7-|---10---9---10-9----|
|-----------------------|-----------------10-|
|-----------------------|--------------------|
|-0-0---------------0---|-0----0---0---------|
|
|-----------------------|--------------------|
|-----------------------|--------------------|
|-----------------------|--------------------|
|------7p5p0--7p5p0-----|----7---5----7-5----|
|---------------------5-|------------------5-|
|-0-0---------------0---|-0----0---0---------|


  Gtrs I, II
|----------|------------|------------|--------*|
|----------|------------|------------|--------*|
|----------|------------|------------|--------*|
|-0--------|-(0)--------|-(0)--------|-(0)----*|
|-0--------|-(0)--------|-(0)--------|-(0)----*|
|-0--------|-(0)--------|-(0)--------|-(0)----*|




CONFINED
                          As recorded by As I Lay Dying
                   (From the 2005 Album SHADOWS ARE SECURITY)
                        Copyright (c) Metal Blade Records

Transcribed by Daniel de la Rosa (MeloDeath)

Gtr I (C G C F A D) - '1'
Gtr II (C G C F A D) - '2'
Gtr III (C G C F A D) - '3'
Gtr IV (C G C F A D) - '4'

 Intro
  Q=180
 4/4
  Gtr I
  PM----------------------------------------|
|---------------------|---------------------|
|---------------------|---------------------|
|---------------------|---------------------|
|---------------------|---------------------|
|---------------------|---------------------|
|-0-0-0-0-0-0-0-0-0-0-|-0-0-0-0-0-0-0-0-0---|
|
| Gtr II
|---------------------|-------------------|
|---------------------|-------------------|
|---------------------|-------------------|
|---------------------|-------------------|
|---------------------|-------------------|
|---------------------|-------------------|


 ---------------------------------------------|
|---------------------|-----------------------|
|---------------------|-----------------------|
|---------------------|-----------------------|
|---------------------|-----------------------|
|---------------------|-----------------------|
|-0-0-0-0-0-0-0-0-0-0-|-0-0-0-0-0-0-0-0-0-----|
|
| PM------------------------------------------|
|---------------------|-----------------------|
|---------------------|-----------------------|
|---------------------|-----------------------|
|---------------------|-----------------------|
|---------------------|-----------------------|
|-0-0-0-0-0-0-0-0-0-0-|-0-0-0-0-0-0-0-0-0-----|


 Pre-Verse
  Gtr I
|-----------------|--------------------|-----------------|-------------------|
|-----------------|--------------------|-----------------|-------------------|
|-----------------|--------------------|-----------------|-------------------|
|-----------------|--------------------|-----------------|-------------------|
|-----5---7-------|--8----10---8-7-3-5-|-----5---7-------|--8----7---8-7-3-5-|
|-0-0---0---0-0-0-|-----0----0---------|-0-0---0---0-0-0-|-----0---0---------|
|
| Gtr II
|-----------------|--------------------|-----------------|-------------------|
|-----------------|--------------------|-----------------|-------------------|
|-----------------|--------------------|-----------------|-------------------|
|-0---------------|-(0)----------------|-0---------------|-(0)---------------|
|-0---------------|-(0)----------------|-0---------------|-(0)---------------|
|-0---------------|-(0)----------------|-0---------------|-(0)---------------|


                                                             Q=185
  Gtr I
|-----------------|--------------------|-------------------|------------------|
|-----------------|--------------------|-------------------|------------------|
|-----------------|--------------------|-------------------|------------------|
|-----------------|--------------------|-------------------|------------------|
|-----5---7-------|--8----10---8-7-3-5-|-------5---7-------|-8----7---8-7-3-5-|
|-0-0---0---0-0-0-|-----0----0---------|--0--0---0---0-0-0-|----0---0---------|
|
| Gtr II                                                     Gtr III
|                                                            TP
|-----------------|--------------------|-------------------|------------------|
|-----------------|--------------------|-------------------|------------------|
|-----------------|--------------------|-------------------|------------------|
|-0---------------|-(0)----------------|-(0)---------------|-x\---------------|
|-0---------------|-(0)----------------|-(0)---------------|-x\---------------|
|-0---------------|-(0)----------------|-(0)---------------|-x\---------------|


   Verse
    Q=180
    Gtrs I, II
    PM|   PM  PM--|     PM   PM          PM|   PM  PM--|     PM  PM
||------------------|------------------|-----------------|-------------------||
||o-----------------|------------------|-----------------|------------------o||
||------------------|------------------|-----------------|-------------------||
||------------------|------------------|-----------------|-------------------||
||o-----5---7-------|-8---10---8-7-3-5-|-----5---7-------|-8---7---8-7-3-5--o||
||--0-0---0---0-0-0-|---0----0---------|-0-0---0---0-0-0-|---0---0-----------||


 Verse
  Q=172
  Gtr I
  PM|   PM  PM--|     PM   PM
|-----------------|--------------------------|
|-----------------|--------------------------|
|-----------------|--------------------------|
|-----------------|--------------------------|
|-----5---7-------|-8---10---8---7---3---5---|
|-0-0---0---0-0-0-|---0----0-----------------|
|
| Gtr II
| PM|       PM--|            PM----------------|
|-----------------|----------------------------|
|-----------------|----------------------------|
|-----------------|----------------------------|
|-----------------|----------------------------|
|-0-0-------0-0-0-|----------0-0-0-0-0-0-0-0---|
|-0-0-------0-0-0-|----------0-0-0-0-0-0-0-0---|


  PM|   PM  PM--|     PM  PM
|-----------------|--------------------------|
|-----------------|--------------------------|
|-----------------|--------------------------|
|-----------------|--------------------------|
|-----5---7-------|-8---7---8---7---3---5----|
|-0-0---0---0-0-0-|---0---0------------------|
|
|---|       PM--|           PM-----------------|
|-----------------|----------------------------|
|-----------------|----------------------------|
|-----------------|----------------------------|
|-----------------|----------------------------|
|-0-0-------0-0-0-|---------0-0-0-0-0-0-0-0----|
|-0-0-------0-0-0-|---------0-0-0-0-0-0-0-0----|


  Gtr I
  PM|   PM  PM--|     PM   PM
|-----------------|--------------------------|
|-----------------|--------------------------|
|-----------------|--------------------------|
|-----------------|--------------------------|
|-----5---7-------|-8---10---8---7---3---5---|
|-0-0---0---0-0-0-|---0----0-----------------|
|
| Gtr II
| PM-------------------------------------------|
|-----------------|----------------------------|
|-----------------|----------------------------|
|-----------------|----------------------------|
|-----------------|----------------------------|
|-0-0-------0-0-0-|----------0-0-0-0-0-0-0-0---|
|-0-0-------0-0-0-|----------0-0-0-0-0-0-0-0---|


  PM|   PM  PM--|       PM    PM ~~~
|-----------------|--------------------|
|-----------------|--------------------|
|-----------------|--------------------|
|-----------------|-------------[7]----|
|-----5---7-------|-8-----7------------|
|-0-0---0---0-0-0-|-----0-----0--------|
|
|-----------------------------|  ~~~-----|
|-----------------|----------------------|
|-----------------|----------------------|
|-----------------|----------------------|
|-----------------|----------------------|
|-0-0-------0-0-0-|-0-0-0-0-0-0-[3]------|
|-0-0-------0-0-0-|-0-0-0-0-0-0----------|


  Gtr I
  PM--|   PM  PM-----------------------------------|     PM   PM
|---------------------|----------------------------|
|---------------------|----------------------------|
|---------------------|----------------------------|
|---------------------|----------------------------|
|-------5---7---------|-8---10---8---7---3---5-----|
|-0---0---0---0-0---0-|---0----0-------------------|
|
| Gtr II
|   PM|       PM  PM|            PM----------------|
|---------------------|----------------------------|
|---------------------|----------------------------|
|---------------------|----------------------------|
|---------------------|----------------------------|
|-0-0-0-------0-0-0-0-|----------0-0-0-0-0-0-0-0---|
|-0-0-0-------0-0-0-0-|----------0-0-0-0-0-0-0-0---|


  PM--|   PM  PM----------------------------------|     PM  PM
|---------------------|---------------------------|
|---------------------|---------------------------|
|---------------------|---------------------------|
|---------------------|---------------------------|
|-------5---7---------|-8---7---8---7---3---5-----|
|-0---0---0---0-0---0-|---0---0-------------------|
|
|   PM|       PM  PM|           PM----------------|
|---------------------|---------------------------|
|---------------------|---------------------------|
|---------------------|---------------------------|
|---------------------|---------------------------|
|-0-0-0-------0-0-0-0-|---------0-0-0-0-0-0-0-0---|
|-0-0-0-------0-0-0-0-|---------0-0-0-0-0-0-0-0---|


  Gtr I
  PM|   PM  PM--|     PM   PM
|-----------------|--------------------------|
|-----------------|--------------------------|
|-----------------|--------------------------|
|-----------------|--------------------------|
|-----5---7-------|-8---10---8---7---3---5---|
|-0-0---0---0-0-0-|---0----0-----------------|
|
| Gtr II
| PM|       PM--|            PM----------------|
|-----------------|----------------------------|
|-----------------|----------------------------|
|-----------------|----------------------------|
|-----------------|----------------------------|
|-0-0-------0-0-0-|----------0-0-0-0-0-0-0-0---|
|-0-0-------0-0-0-|----------0-0-0-0-0-0-0-0---|


  PM|   PM  PM--|     PM  PM
|-----------------|--------------------------|
|-----------------|--------------------------|
|-----------------|--------------------------|
|-----------------|---------------------0----|
|-----5---7-------|-8---7---8---7---3---0----|
|-0-0---0---0-0-0-|---0---0-------------0----|
|
|---|       PM--|           PM-----------------|
|-----------------|----------------------------|
|-----------------|----------------------------|
|-----------------|----------------------------|
|-----------------|----------------------------|
|-0-0-------0-0-0-|---------0-0-0-0-0-0-0-0----|
|-0-0-------0-0-0-|---------0-0-0-0-0-0-0-0----|


 Verse
  Gtr I
      PM------------|           PM-------------|
|-----------------------|----------------------|
|-----------------------|----------------------|
|-----------------------|----------------------|
|-(0)-------------------|----------------------|
|-(0)-0-0-0-0-0-0-0-0-8-|---7-0-0-0-0-0-0-10---|
|-(0)-0-0-0-0-0-0-0-0---|-0---0-0-0-0-0-0------|
|
| Gtr II
|     PM------------|           PM-------------|
|-----------------------|----------------------|
|-----------------------|----------------------|
|-----------------------|----------------------|
|-----------------------|----------------------|
|-(0)-0-0-0-0-0-0-0-0-8-|---7-0-0-0-0-0-0-10---|
|-(0)-0-0-0-0-0-0-0-0---|-0---0-0-0-0-0-0------|


        PM------------------------------|     PM  PM  PM
|-------------------|-------------------|
|-------------------|-------------------|
|-------------------|-------------------|
|-------------------|-------------------|
|---8-0-0-0-0-0-0-1-|---0-------0-------|
|-0---0-0-0-0-0-0---|-0---0-5-0---5-3---|
|
|       PM------------------------------|     PM  PM  PM
|-------------------|-------------------|
|-------------------|-------------------|
|-------------------|-------------------|
|-------------------|-------------------|
|---8-0-0-0-0-0-0-1-|---0-------0-------|
|-0---0-0-0-0-0-0---|-0---0-5-0---5-3---|


  Gtr I
                              PM----|
|---------------------|-------------------|
|---------------------|-------------------|
|---------------------|-------------------|
|---------------------|-------------------|
|-0-0-0-0-0-0-0-0-0-8-|---7-0-0-0-0-0-7-8-|
|-0-0-0-0-0-0-0-0-0---|-0---0-0-0-0-0-----|
|
| Gtr II
|                             PM----|
|---------------------|-------------------|
|---------------------|-------------------|
|---------------------|-------------------|
|---------------------|-------------------|
|-0-0-0-0-0-0-0-0-0-8-|---7-0-0-0-0-0-3-5-|
|-0-0-0-0-0-0-0-0-0---|-0---0-0-0-0-0-----|


        PM----|           PM  PM
|-------------------|-----------------|
|-------------------|-----------------|
|-------------------|-----------------|
|---7---------------|-----------------|
|-5---0-0-0-0-0-0-1-|---0-------0-7-8-|
|-----0-0-0-0-0-0---|-0---0-5-0-------|
|
|       PM----|           PM  PM
|-------------------|-----------------|
|-------------------|-----------------|
|-------------------|-----------------|
|---3---------------|-----------------|
|-1---0-0-0-0-0-0-1-|---0-------0-7-8-|
|-----0-0-0-0-0-0---|-0---0-5-0-------|


  Gtrs I, II
|-----------------------|----------------------|
|-----------------------|----------------------|
|-----------------------|----------------------|
|-----------------------|----------------------|
|-0-0-0-0-0-0-0-0-0-0-8-|---7-0-0-0-0-0-0-0-10-|
|-0-0-0-0-0-0-0-0-0-0---|-0---0-0-0-0-0-0-0----|


                        PM  PM  PM
|---------------------|-------------------|
|---------------------|-------------------|
|---------------------|-------------------|
|---------------------|-------------------|
|---8-0-0-0-0-0-0-0-1-|---0-------0-------|
|-0---0-0-0-0-0-0-0---|-0---0-5-0---5-3---|


  Gtr I
|-----------------------|---------------------|
|-----------------------|---------------------|
|-----------------------|---------------------|
|-----------------------|---------------------|
|-0-0-0-0-0-0-0-0-0-0-8-|---7-0-0-0-0-0-0-7-8-|
|-0-0-0-0-0-0-0-0-0-0---|-0---0-0-0-0-0-0-----|
|
| Gtr II
|-----------------------|---------------------|
|-----------------------|---------------------|
|-----------------------|---------------------|
|-----------------------|---------------------|
|-0-0-0-0-0-0-0-0-0-0-8-|---7-0-0-0-0-0-0-3-5-|
|-0-0-0-0-0-0-0-0-0-0---|-0---0-0-0-0-0-0-----|


                            PM  PM
|---------------------|-------------------|
|---------------------|-------------------|
|---------------------|-------------------|
|---7-----------------|-------------------|
|-5---0-0-0-0-0-0-0-1-|---0-------0-7-8---|
|-----0-0-0-0-0-0-0---|-0---0-5-0---------|
|
|                           PM  PM
|---------------------|-------------------|
|---------------------|-------------------|
|---------------------|-------------------|
|---3-----------------|-------------------|
|-1---0-0-0-0-0-0-0-1-|---0-------0-7-8---|
|-----0-0-0-0-0-0-0---|-0---0-5-0---------|


 Pre-Chorus
  Gtrs I, II
  PM|   PM  PM  PM    PM    PM  PM    PM|   PM  PM  PM    PM    PM  PM
|-----------------|-----------------|-----------------|-----------------|
|-----------------|-----------------|-----------------|-----------------|
|-----------------|-----------------|-----------------|-----------------|
|-------------7---|-5---------5---7-|-------------7---|-5---------5-----|
|-----5---8-------|-----5h8---------|-----5---8-------|-----5h8-------5-|
|-8-8---8---8---8-|---5-----5---5---|-0-0---0---0---0-|---0-----0---0---|


  Gtrs I, II
  PM|   PM  PM  PM    PM    PM  PM    PM|   PM  PM  PM     PM    PM  PM
|-----------------|-----------------|-----------------|------------------|
|-----------------|-----------------|-----------------|------------------|
|-----------------|-----------------|-----------------|------------------|
|-----0---3---7---|-5---------5---7-|-------------7---|-5----------5-----|
|-----------------|-----5h8---------|-----5---8-------|------5h8-------5-|
|-3-3---3---3---3-|---5-----5---5---|-0-0---0---0---0-|----0-----0---0---|
|
|                                                       Gtr III
|                                                       TP
|-----------------|-----------------|-----------------|------------------|
|-----------------|-----------------|-----------------|------------------|
|-----------------|-----------------|-----------------|------------------|
|-----------------|-----------------|-----------------|-x\---------------|
|-----------------|-----------------|-----------------|-x\---------------|
|-----------------|-----------------|-----------------|-x\---------------|


 Chorus
  Gtrs I, II
  PM|   PM  PM  PM    PM    PM  PM    PM|   PM  PM  PM    PM    PM  PM
|-----------------|-----------------|-----------------|-----------------|
|-----------------|-----------------|-----------------|-----------------|
|-----------------|-----------------|-----------------|-----------------|
|-------------7---|-5---------5---7-|-------------7---|-5---------5-----|
|-----5---8-------|-----5h8---------|-----5---8-------|-----5h8-------5-|
|-8-8---8---8---8-|---5-----5---5---|-0-0---0---0---0-|---0-----0---0---|


  Gtrs I, II
  PM|   PM  PM  PM    PM    PM  PM    PM|   PM  PM  PM    PM    PM  PM
|-----------------|-----------------|-----------------|-----------------|
|-----------------|-----------------|-----------------|-----------------|
|-----------------|-----------------|-----------------|-----------------|
|-----0---3---7---|-5---------5---7-|-------------7---|-5---------5-----|
|-----------------|-----5h8---------|-----5---8-------|-----5h8-------5-|
|-3-3---3---3---3-|---5-----5---5---|-0-0---0---0---0-|---0-----0---0---|


 Bridge
  Gtrs I, II
  PM|   PM  PM  PM    PM    PM  PM
|-----------------|-----------------|
|-----------------|-----------------|
|-----------------|-----------------|
|-------------7---|-5---------5-----|
|-----5---8-------|-----5h8-------5-|
|-8-8---8---8---8-|---5-----5---5---|


   Verse
    Gtrs I, II
    PM|   PM  PM--|     PM   PM          PM|   PM  PM--|     PM  PM
||------------------|------------------|-----------------|-------------------||
||o-----------------|------------------|-----------------|------------------o||
||------------------|------------------|-----------------|-------------------||
||------------------|------------------|-----------------|-------------------||
||o-----5---7-------|-8---10---8-7-3-5-|-----5---7-------|-8---7---8-7-3-5--o||
||--0-0---0---0-0-0-|---0----0---------|-0-0---0---0-0-0-|---0---0-----------||


    Gtr I
    PM  PM  PM  PM|   PM    PM   PM
||----------------------|------------------|
||o---------------------|------------------|
||----------------------|------------------|
||----------------------|------------------|
||o-------5---7---------|-8---10---8-7-3-5-|
||--0-0-0---0---0-0-0-0-|---0----0---------|
|
|   Gtr II
|   PM  PM  PM  PM|   PM    PM   PM
||----------------------|------------------|
||o---------------------|------------------|
||----------------------|------------------|
||----------------------|------------------|
||o-------5---7---------|-8---10---8-7-3-5-|
||--0-0-0---0---0-0-0-0-|---0----0---------|


  PM  PM  PM  PM|   PM    PM  PM
|---------------------|-------------------||
|---------------------|------------------o||
|---------------------|-------------------||
|---------------------|-------------------||
|-------5---7---------|-8---7---8-7-3-5--o||
|-0-0-0---0---0-0-0-0-|---0---0-----------||
|
| PM  PM  PM  PM|   PM    PM  PM
|---------------------|-------------------||
|---------------------|------------------o||
|---------------------|-------------------||
|---------------------|-7---5---7-5-2-3---||
|-------5---7---------|------------------o||
|-0-0-0---0---0-0-0-0-|---0---0-----------||


 Pre-Chorus
  Gtrs I, II
  PM|   PM  PM  PM    PM    PM  PM    PM|   PM  PM  PM    PM    PM  PM
|-----------------|-----------------|-----------------|-----------------|
|-----------------|-----------------|-----------------|-----------------|
|-----------------|-----------------|-----------------|-----------------|
|-------------7---|-5---------5---7-|-------------7---|-5---------5-----|
|-----5---8-------|-----5h8---------|-----5---8-------|-----5h8-------5-|
|-8-8---8---8---8-|---5-----5---5---|-0-0---0---0---0-|---0-----0---0---|


  Gtrs I, II
  PM|   PM  PM  PM    PM    PM  PM    PM|   PM  PM  PM     PM    PM  PM
|-----------------|-----------------|-----------------|------------------|
|-----------------|-----------------|-----------------|------------------|
|-----------------|-----------------|-----------------|------------------|
|-----0---3---7---|-5---------5---7-|-------------7---|-5----------5-----|
|-----------------|-----5h8---------|-----5---8-------|------5h8-------5-|
|-3-3---3---3---3-|---5-----5---5---|-0-0---0---0---0-|----0-----0---0---|
|
| Gtr III
|                                                       TP
|-----------------|-----------------|-----------------|------------------|
|-----------------|-----------------|-----------------|------------------|
|-----------------|-----------------|-----------------|------------------|
|-----------------|-----------------|-----------------|-x\---------------|
|-----------------|-----------------|-----------------|-x\---------------|
|-----------------|-----------------|-----------------|-x\---------------|


 Chorus
  Gtrs I, II
  PM|   PM  PM  PM    PM    PM  PM    PM|   PM  PM  PM    PM    PM  PM
|-----------------|-----------------|-----------------|-----------------|
|-----------------|-----------------|-----------------|-----------------|
|-----------------|-----------------|-----------------|-----------------|
|-------------7---|-5---------5---7-|-------------7---|-5---------5-----|
|-----5---8-------|-----5h8---------|-----5---8-------|-----5h8-------5-|
|-8-8---8---8---8-|---5-----5---5---|-0-0---0---0---0-|---0-----0---0---|


  Gtrs I, II
  PM|   PM  PM  PM    PM    PM  PM    PM|   PM  PM  PM    PM    PM  PM
|-----------------|-----------------|-----------------|-----------------|
|-----------------|-----------------|-----------------|-----------------|
|-----------------|-----------------|-----------------|-----------------|
|-----0---3---7---|-5---------5---7-|-------------7---|-5---------5-----|
|-----------------|-----5h8---------|-----5---8-------|-----5h8-------5-|
|-3-3---3---3---3-|---5-----5---5---|-0-0---0---0---0-|---0-----0---0---|


 Bridge
  Gtrs I, II
  PM|   PM  PM  PM    PM    PM  PM
|-----------------|-----------------|
|-----------------|-----------------|
|-----------------|-----------------|
|-------------7---|-5---------5-----|
|-----5---8-------|-----5h8-------5-|
|-8-8---8---8---8-|---5-----5---5---|
|
| Gtr IV
|-----------------|-----------------|
|-----------------|-----------------|
|-----------------|-----------------|
|-8---------------|-5---------------|
|-8---------------|-5---------------|
|-8---------------|-5---------------|


 Verse
  Gtrs I, II
  PM----------------------------------------|
|---------------------|---------------------|
|---------------------|---------------------|
|---------------------|---------------------|
|---------------------|---------------------|
|---------------------|---------------------|
|-0-0-0-0-0-0-0-0-0-0-|-0-0-0-0-0-0-0-0-0---|


 ------------------------------------------|     PM  PM  PM
|---------------------|--------------------|
|---------------------|--------------------|
|---------------------|--------------------|
|---------------------|--------------------|
|-------------------1-|---0-------0--------|
|-0-0-0-0-0-0-0-0-0---|-0---0-5-0---5-3----|


  Gtrs I, II
  PM----------------------------------------|
|---------------------|---------------------|
|---------------------|---------------------|
|---------------------|---------------------|
|---------------------|---------------------|
|---------------------|---------------------|
|-0-0-0-0-0-0-0-0-0-0-|-0-0-0-0-0-0-0-0-0---|


 ------------------------------------------|     PM  PM  PM
|---------------------|--------------------|
|---------------------|--------------------|
|---------------------|--------------------|
|---------------------|--------------------|
|-------------------1-|---0-------0-7-8----|
|-0-0-0-0-0-0-0-0-0---|-0---0-5-0----------|


 Outro
  Gtrs I, II
  PM--------------|     PM  PM---------------|
|---------------------|----------------------|
|---------------------|----------------------|
|---------------------|----------------------|
|---------------------|----------------------|
|-------------------8-|---7-------------10---|
|-0-0-0-0-0-0-0-0-0---|-0---0-0-0-0-0-0------|


    PM-------------------------------------|     PM  PM  PM
|---------------------|--------------------|
|---------------------|--------------------|
|---------------------|--------------------|
|---------------------|--------------------|
|---8---------------1-|---0-------0--------|
|-0---0-0-0-0-0-0-0---|-0---0-5-0---5-3----|


  Gtr I
  PM--------------|     PM  PM------------|
|---------------------|-------------------|
|---------------------|-------------------|
|---------------------|-------------------|
|---------------------|-------------------|
|-------------------8-|---7---------3-5---|
|-0-0-0-0-0-0-0-0-0---|-0---0-0-0-0-------|
|
| Gtr II
| PM--------------|     PM  PM------------|
|---------------------|-------------------|
|---------------------|-------------------|
|---------------------|-------------------|
|---------------------|-------------------|
|-------------------8-|---7---------3-5---|
|-0-0-0-0-0-0-0-0-0---|-0---0-0-0-0-------|


    PM------------------------------------|     PM  PM  PM
|---------------------|-------------------|
|---------------------|-------------------|
|---------------------|-------------------|
|---3-----------------|-------------------|
|-1-----------------1-|---0-------0---8---|
|-----0-0-0-0-0-0-0---|-0---0-5-0---5-----|
|
|   PM------------------------------------|     PM  PM  PM
|---------------------|-------------------|
|---------------------|-------------------|
|---------------------|-------------------|
|---3-----------------|-------------------|
|-1-----------------1-|---0-------0-------|
|-----0-0-0-0-0-0-0---|-0---0-5-0---5-3---|


  Gtrs I, II
|----------|------------|------------|--------*|
|----------|------------|------------|--------*|
|----------|------------|------------|--------*|
|-0--------|-(0)--------|-(0)--------|-(0)----*|
|-0--------|-(0)--------|-(0)--------|-(0)----*|
|-0--------|-(0)--------|-(0)--------|-(0)----*|



Losing sight

Tuning: CGCFAD

D----------------------------------------------|
A----------------------------------------------|
F----------------------------------------------|
C-000-000-000---------000-000-----------7------|
G-000-000-000---5-8---000-000---0-5-0-----7----|
C-000-000-000---------000-000------------------|
  ... ... ...         ... ...

D----------------------------------------------|
A----------------------------------------------|
F----------------------------------------------|
C-000-000-000---------000-------000---2--------|
G-000-000-000---5-8---000---3---000-0----------|
C-000-000-000---------000-3-----000------------|
  ... ... ...         ...       ...

D-----------------------------------------------|
A-----------------------------------------------|
F-----------------------------------------------|
C-0---0-000-000---------7-7-5---7-5-------------|
G-0---0-000-000---5-8---------------8-7-8-7-5-3-|
C-0---0-000-000---------------------------------|
      . ... ...

D----------------------------------------------|
A----------------------------------------------|
F----------------------------------------------|
C-0---000-000---------7-7-5---10-8-7-5-8-7-5---|
G-0---000-000---5-8--------------------------8-|
C-0---000-000----------------------------------|
      ... ...

D----------------------------------------------|
A----------------------------------------------|
F----------------------------------------------|
C-0-000000-------------------------------------|
G-0-000000---8----7----------------------------|
C-0-000000-----00---0-10-00--------------------|
    ......     ..   .    ..

D----------------------------------------------|
A----------------------------------------------|
F----------------------------------------------|
C-0-000000-----------7---10--------------------|
G-0-000000---5p0-5/8---7----7------------------|
C-0-000000-------------------------------------|
    ......

D----------------------------------------------|
A----------------------------------------------|
F----------------------------------------------|
C-0-000000-------------------------------------|
G-0-000000---8----7----------------------------|
C-0-000000-----00---0-10-00--------------------|
    ......     ..   .    ..

D----------------------------------------------|
A----------------------------------------------|
F----------------------------------------------|
C-0-000000---7777-10101010---------------------|
G-0-000000---7777-10101010---------------------|
C-0-000000-------------------------------------|
    ......


D----------------------------------------------|
A----------------------------------------------|
F----------------------------------------------|
C-000-000-000---------000-000-----------7------|
G-000-000-000---5-8---000-000---0-5-0-----7----|
C-000-000-000---------000-000------------------|
  ... ... ...         ... ...

D----------------------------------------------|
A----------------------------------------------|
F-----------------------------7---10-----------|
C-000-000-000---------7---------7----7---------|
G-000-000-000---5-8-----8-7-8------------------|
C-000-000-000----------------------------------|
  ... ... ...         . . . .

D----------------------------------------------|
A----------------------------------------------|
F----------------------------------------------|
C-000-000-000---------000-000-----------7------|
G-000-000-000---5-8---000-000---0-5-0-----7----|
C-000-000-000---------000-000------------------|
  ... ... ...         ... ...

D----------------------------------------------|
A----------------------------------------------|
F----------------------------------------------|
C-000-000-000---------0-0-000-000-------7------|
G-000-000-000---5-8---0-0-000-000-0-5-7--------|
C-000-000-000---------0-0-000-000--------------|
  ... ... ...         . . ... ...



As I Lay Dying
"The Darkest Nights"
Tabbed by Nic (New Noise)

Tuning: Drop C (CGCFAD)

= - let ring
. - palm mute
x - mute w/ fret hand

INTRO (x2)
Both Guitars
|-----------------------------------------------|
|-----------------------------------------------|
|-----------------------------------------------| x3
|-12-0----15-0-14-0-12-0-12----12-15-0-14-0-----|
|------15-------------------15------------------|
|-----------------------------------------------|

|-----------------------------------------------|
|-----------------------------------------------|
|---------------------------------17------------|
|-12-0----15-0-14-0-12-0-15-14-15----15-14------|
|------15----------------------------------15---|
|-----------------------------------------------|


BRIDGE TO VERSE
 Guitar I
|-----------------------------------------------------------------|
|-----------------------------------------------------------------|
|-----------------------------------------------------------------|
|-------------------3---3-2-------------------------7---7-5-------|
|---5-----8---5---------------3-----5-----8---5---------------7---|
|-0---0-0---0---0-5---5-----5---5-0---0-0---0---0-8---8-----8-----|
| .   . .   .   . .   .     .   . .   . .   .   . .   .     .
|Guitar II
|-----------------------------------------------------------------|
|-----------------------------------------------------------------|
|-----------------------------------------------------------------|
|-0========================--0--0-0---------------8----10--7------|
|-0========================--0--0-0---------------8----10--7------|
|-0========================--0--0-0---------------8----10--7------|
                             .  . .

VERSE PART 1 (x2)
 Guitar I
|------------------------------------------------------------------|
|------------------------------------------------------------------|
|------------------------------------------------------------------|
|-------------------3---3-2-------------------------7---7-5---5----|
|---5-----8---5---------------3-----5-----8---5--------------------|
|-0---0-0---0---0-5---5-----5---5-0---0-0---0---0-8---8-----8---8--|
| .   . .   .   . .   .     .   . .   . .   .   . .   .     .   .
|Guitar II
|------------------------------------------------------------------|
|------------------------------------------------------------------|
|------------------------------------------------------------------|
|-------------------3---3-2-------------------------3---3-2--------|
|---5-----8---5---------------3-----5-----8---5---------------3----|
|-0---0-0---0---0-5---5-----5---5-0---0-0---0---0-5---5-----5---5--|
  .   . .   .   . .   .     .   . .   . .   .   . .   .     .   .

 Guitar I
|------------------------------------------------------------------|
|------------------------------------------------------------------|
|------------------------------------------------------------------|
|-------------------3---3-2-------------------------7---7-5---5----|
|---5-----8---5---------------3-----5-----8---5--------------------|
|-0---0-0---0---0-5---5-----5---5-0---0-0---0---0-8---8-----8---8--|
| .   . .   .   . .   .     .   . .   . .   .   . .   .     .   .
|Guitar II
|------------------------------------------------------------------|
|------------------------------------------------------------------|
|------------------------------------------------------------------|
|-------------------3---3-2---------------0------------------------|
|---5-----8---5---------------3---1-1-1-1---1-1-1-3-3-3-3-1-1-0-0--|
|-0---0-0---0---0-5---5-----5---5----------------------------------|
  .   . .   .   . .   .     .   . .   . .   .   . .   .     .   .


VERSE PART 2
Both Guitars
|---------------------------------------------------------------|
|---------------------------------------------------------------|
|----------------------------------------------3----0-----------|
|-0----3---2-----3----3---2-----5----3---2-----3--------3---2---|
|-0------------3-3------------3-5------------3-1--1---1---1-----|
|-0--0---0---0---3--3---3---3---5--5---5---5--------------------|
     .   .   .      .   .   .      .   .   .      .   .   .

 Guitar I
|---------------------------------------------------------------|
|---------------------------------------------------------------|
|----------------------------------------------3----0-----------|
|-0----3---2-----3----3---2-----5----3---2-----3--------3---2---|
|-0------------3-3------------3-5------------3-1--1---1---1-----|
|-0--0---0---0---3--3---3---3---5--5---5---5--------------------|
|    .   .   .      .   .   .      .   .   .      .   .   .
|Guitar II
|---------------------------------------------------------------|
|---------------------------------------------------------------|
|---------------------------------------------------------------|
|-0----7---5---3-3----7---5---3-5----7---5---3-8----5---7---5---|
|-0--------------3--------------5--------------8----------------|
|-0--0---0---0---3--3---3---3---5--5---5---5---8--8---8---8-----|
     .   .   .      .   .   .      .   .   .      .   .   .

Both Guitars
|------------------------------------------------------------------|
|------------------------------------------------------------------|
|------------------------------------------------------------------|
|---------------------------------------------7--------------------|
|------8--7---------8--7---------10--8-7-8-10---10-8--7h8p7--------|
|-0--0------10-7--7------10-8--8-----------------------------------|

|Guitar I
|------------------------------------------------------------------|
Добавлено: 19.07.2012
Другие материалы по этой песне:
  • Аккорды и текст

Страница создана 19.07.2012
http://primanota.ru/as-i-lay-dying/shadows-are-security-album-chords.htm
Привет, Гость.
Предлагаем пройти революционный курс по гитаре.
Подарок от PrimaNota.Ru, забирай!