PrimaNota.ru - самый крупный в мире бесплатный архив песенных текстов, аккордов, табулатур и нот


As I Lay Dying - Separation - таба, видео

Регистрация Запомнить меня
Войти через:  Facebook Google Twitter Vk Yandex Mail.ru

As I Lay Dying - Separation - таба, видео

Печатать
Просмотров: 243
-------------------------------------------------------------------------------
               As I Lay Dying - Separation
-------------------------------------------------------------------------------
Tabbed by: solopractice 
Email:linkinpark_neon@yahoo.com

Tuning: Drop C (C-G-C-F-A-D)

  Lead Guitar
D|---------------------------------------------------------------------------|
A|-------5-5h6~-------5-5h6-5------------5-5h6~-------5-5h6------------------|
F|----------------------------5-----------------------------5----------------|
C|----7------------7------------7------7-----------7----------7--------------|
G|---------------------------------------------------------------------------|
C|--0------------0-------------------5-----------5---------------------------|

Lead Guitar
D|------------------------------------------------------5--------------------|
A|-------5-5h6~-------5-5h6-5------------5-5h6~-------6-----6---5------------|
F|----------------------------5--------------------7------7---7--------------|
C|----7------------7------------7------7-------------------------------------|
G|---------------------------------------------------------------------------|
C|--0------------0-------------------5-----------8---------------------------|



Lead Guitar
D|---------------------------------------------------------------------------|
A|-------5-5h6~-------5-5h6-5------------5-5h6~----5h6-----10-8-----6~-------|
F|----------------------------5----------------------------------------------|
C|----7------------7------------7------7-------------------------------------|
G|---------------------------------------------------------------------------|
C|--0------------0-------------------5-----------8------5--------8-----------|

Rhythm Guitar
D|---------------------------------------------------------------------------|
A|---------------------------------------------------------------------------|
F|---------------------------------------------------------------------------|
C|--0------------0-------------------5-----------8------5-------7------------|
G|--0------------0-------------------5-----------8------5-------7------------|
C|--0------------0-------------------5-----------8------5-------7------------|

Duet part (2 guitars)(heavy distortion)

  Guitar 1 (left)  
D|---------------------------------------------------------------------------|
A|------------------------------------------------5-5h6--5-------------------|
F|------5-5h7~------5-5h7-5-----------5-5h7~----5----------7-----------------|
C|----7-----------7---------7-------7------------------------7~--------------|
G|----------------------------8----------------------------------------------|
C|--0----------0------------------5----------8-------------------------------|

  Guitar 2 (right)
D|---------------------------------------------------------------------------|
A|-------5-5h6~-------5-5h6-5------------5-5h6~------6-/10--8-5--------------|
F|----------------------------5--------------------7------------5~-----------|
C|----7------------7------------7------7-------------------------------------|
G|---------------------------------------------------------------------------|
C|--0------------0-------------------5-----------8---------------------------|

  Guitar 1 (left)  
D|---------------------------------------------------------------------------|
A|-------5-5h6~-------5-5h6-5------------5-5h6~-----------6-5----------------|
F|----------------------------5--------------------5-7--------------7~-------|
C|----7------------7------------7------7-------------------------------------|
G|---------------------------------------------------------------------------|
C|--0------------0-------------------5-----------8------5-------7------------|

  Guitar 2 (right)
D|--------3-3h5~------3-3h5-3-------------3-3h5~--------------5-3------------|
A|----------------------------5----------------------5-6--------------7~-----|
F|-----5-----------5------------5~-----5-------------------------------------|
C|---------------------------------------------------------------------------|
G|---------------------------------------------------------------------------|
C|--0------------0------------------5------------8---------5-------7---------|

   (End leading into track 2, Nothing Left)
   Rhythm Guitar
D|---------------------------------------------------------------------------|
A|---------------------------------------------------------------------------|
F|---------------------------------------------------------------------------|
C|-0-------------------------------------------------------------------------|
G|-0-------------------------------------------------------------------------|
C|-0-------------------------------------------------------------------------|
 
    Lead Guitar
D|---------------------------------------------------------------------------|
A|-----------------------------------15-15-15-15-15-15-15-15-15-15-15-15-15--|
F|-----------------------------------14-14-14-14-14-14-14-14-14-14-14-14-14--|
C|---------------------------------------------------------------------------|
G|---------------------------------------------------------------------------|
C|---------------------------------------------------------------------------|

| /  slide up
| \  slide down
| h  hammer-on
| p  pull-off
| ~  vibrato
| +  harmonic
| x  Mute note
===============================================================================
Добавлено: 13.07.2012
Другие материалы по этой песне:

Страница создана 29.03.2012
http://primanota.ru/as-i-lay-dying/separation-chords.htm
Привет, Гость.
Предлагаем пройти революционный курс по гитаре.
Подарок от PrimaNota.Ru, забирай!