PrimaNota.ru - самый крупный в мире бесплатный архив песенных текстов, аккордов, табулатур и нот


As I Lay Dying - Paralyzed - текст песни, таба, видео

Регистрация Запомнить меня
Войти через:  Facebook Google Twitter Vk Yandex Mail.ru

As I Lay Dying - Paralyzed - текст песни, таба, видео

Печатать
Просмотров: 231
Guitar 1-Lead
Guitar 2-rhythm


alternate pick - .
palm mute - *
pinch harmonic - (*)
slide - /




Intro - Guitar 1

D#--12-10-12-10-13-10----12-10-12-10-12-10-13-10--------------------|  x4
A#------------------------------------------------------------------|
F#------------------------------------------------------------------|
C#------------------------------------------------------------------|
G#------------------------------------------------------------------|
C#------------------------------------------------------------------|


Intro - Guitar 2

D#------------------------------------------------------------------|  x4
A#------------------------------------------------------------------|
F#------------------------------------------------------------------|
C#--------------0-----0---------------------------------------------|
G#-000-000-000--0-000-0-000-000-------------------------------------|
C#-000-000-000--0-000-0-000-000-------------------------------------|


pre verse - Guitar 1+2

D#------------------------------------------------------------------|
A#------------------------------------------------------------------|
F#------------------------------------------------------------------|
C#------------------------------------------------------------------|
G#---------------------------------------------------------(3*)-----|
C#---8888-0000-8888-77777777--8888-0000-8888-77777777---------------|


D#------------------------------------------------------------------| x2
A#------------------------------------------------------------------|
F#------------------------------------------------------------------|
C#-----------------0-----0------------------------------------------|
G#--000-000-000-00-0-000-0-000-000----------------------------------|
C#--000-000-000-00-0-000-0-000-000----------------------------------|


then Guitar 1 plays this riff while guitar 2 still plays the one above.

D#-------7------------|  x2
A#-------6------------|
F#---7---7------------|
C#---7---7------------|
G#---5---5------------|
C#--------------------|


Guitar 1+2

D#------------------------------------------------------------------|
A#------------------------------------------------------------------|
F#------------------------------------------------------------------|
C#--0000-----0000-0000-----00000------------------------------------|
G#--0000-000-0000-0000-000-00000------------------------------------|
C#--0000-000-0000-0000-000-00000------------------------------------|


Then Guitar 1 plays this while guitar 2 plays the part above

D#--------------------------|   x2
A#--------------------------|
F#--------------------------|
C#--------------------------|
G#--5(x12)-bend-------------|
C#--------------------------|


Guitar 1

D#--5---5---3---6---6---3-----|  x2
A#---3---3---3---3---3---3----|
F#----2---2-------2---2-------|
C#----------------------------|
G#----------------------------|
C#----------------------------|


Guitar 2

D#------------------------------------------------------------------| x2
A#------------------------------------------------------------------|
F#------------------------------------------------------------------|
C#--0000-----0000-0000-----00000------------------------------------|
G#--0000-000-0000-0000-000-00000------------------------------------|
C#--0000-000-0000-0000-000-00000------------------------------------|


Pre chours - Guitar 1+2

D#------------------------------------------------------------------| x2
A#------------------------------------------------------------------|
F#--7777---10-10--9-9-9--10-10--9-9-9--10-10-14-14-14-14-9--10-5-7--|
C#--xxxx---x--x---x-x-x--x--x---x-x-x--x--x--x--x--x--x--x--x--x-x--|
G#--5555---8--8---8-8-8--8--8---8-8-8--8--8--12-12-12-12-8--8--3-5--|
C#------------------------------------------------------------------|


Guitar 1+2

D#------------------------------------------------------------------|
A#------------------------------------------------------------------|
F#--7777777777-10101010-9999999999-141414141414-99-1010-------------|
C#------------------------------------------------------------------|
G#------------------------------------------------------------------|
C#------------------------------------------------------------------|


Chours - Guitar 1+2

D#-----------------------------------------------------|  x2
A#--------------------------------------------11-10----|
F#--10*-0-9-7--777-------------10*-0-9-7--777----------|
C#-----------10---7*-0*-7*-0*-----------10-------------|
G#-----------------------------------------------------|
C#-----------------------------------------------------|


the next part is the same as the verse and i havent figuered out the solo yet
ill try to put it out soon enjoy
Добавлено: 17.09.2013
Другие материалы по этой песне:

Страница создана 09.03.2012
http://primanota.ru/as-i-lay-dying/paralyzed-chords.htm
Привет, Гость.
Предлагаем пройти революционный курс по гитаре.
Подарок от PrimaNota.Ru, забирай!