PrimaNota.ru - самый крупный в мире бесплатный архив песенных текстов, аккордов, табулатур и нот


As I Lay Dying - No Lungs To Breathe - текст песни, таба, видео

Регистрация Запомнить меня
Войти через:  Facebook Google Twitter Vk Yandex Mail.ru

As I Lay Dying - No Lungs To Breathe - текст песни, таба, видео

Печатать
Просмотров: 185
        Intro only (repeat numerous times)
Tuning C# G# C# F# A# D# (dropped half step down)


D#|-----------------------------------------------------------------------------------------|
A#|-----------------------------------------------------------------------------------------|
F#|-----------------------7-----------------------------------------------------------------|
C#|--7-----------------7-----7--------------8--7-----------------7--------------------------|
G#|-----8--5--0--5--8-----------8--5--0--5--------8--5--0--5--8-----10--8--7------7--8--10--|
C#|---------------------------------------------------------------------------10------------|



D#|-----------------------------------------------------------------------------------------|
A#|-----------------------------------------------------------------------------------------|
F#|-----------------------7-----------------------------------------------------------------|
C#|--7-----------------7-----7--------------8--7-----------------7------------10------------|
G#|-----8--5--0--5--8-----------8--5--0--5--------8--5--0--5--8-----10--8--7------7--8--10--|
C#|-----------------------------------------------------------------------------------------|
Добавлено: 29.06.2013
Другие материалы по этой песне:

Страница создана 29.06.2013
http://primanota.ru/as-i-lay-dying/no-lungs-to-breathe-chords.htm
Привет, Гость.
Предлагаем пройти революционный курс по гитаре.
Подарок от PrimaNota.Ru, забирай!