PrimaNota.ru - самый крупный в мире бесплатный архив песенных текстов, аккордов, табулатур и нот


As I Lay Dying - From Shapeless To Breakable - таба, видео

Регистрация Запомнить меня
Войти через:  Facebook Google Twitter Vk Yandex Mail.ru

As I Lay Dying - From Shapeless To Breakable - таба, видео

Печатать
Просмотров: 116
-------------------------------------------------------------------------------
                As I Lay Dying - From Shapeless to Breakable
-------------------------------------------------------------------------------
Tabbed by: maglehtim
Email: maglehtim@gmail.com

Tuning: Drop C

D|---------------------------------------------------------------------------|
A|---------------------------------------------------------------------------|
F|---------------------------------------------------------------------------|
C|--8\7---11--8---8\7---------------8\7---11--8---8-7~-8~--------------------|
G|--6\5---9---6---6\5---------------6\5---9---6---6-5~-6~--------------------|
C|------0---0---0-----0-000-0-000-0-----0---0---0----------------------------|
PM      .   .   .     . ... . ... .     .   .   .


D|---------------------------------------------------------------------------|
A|---------------------------------------------------------------------------|
F|---------------------------------------------------------------------------|
C|--8\7---11--8---8\7---------------8\7---11--8---11--8----------------------|
G|--6\5---9---6---6\5---------------6\5---9---6---9---6----------------------|
C|------0---0---0-----0-000-0-000-0-----0---0---0---0---0-0-0-0-0-0----------|
PM      .   .   .     . ... . ... .     .   .   .   .   . . . . . .


D|---------------------------------------------------------------------------|
A|---------------------------------------------------------------------------|
F|---------------------------------------------------------------------------|
C|--8\7---11--8---8\7---------------8\7---11--8---8--------------------------|
G|--6\5---9---6---6\5---------------6\5---9---6---6-555555-666666------------|
C|------0---0---0-----0-000-0-000-0-----0---0---0----------------------------|
PM      .   .   .     . ... . ... .     .   .   .   ...... ......


D|---------------------------------------------------------------------------|
A|---------------------------------------------------------------------------|
F|---------------------------------------------------------------------------|
C|--8\7---11--8---8\7---------------8\7---11--8---8--------------------------|
G|--6\5---9---6---6\5---------------6\5---9---6---6-555555-666666------------|
C|------0---0---0-----0-000-0-000-0-----0---0---0----------------------------|
PM      .   .   .     . ... . ... .     .   .   .   ...... ......


D|---------------------------------------------------------------------------|
A|---------------------------------------------------------------------------|
F|---------------------------------------------------------------------------|
C|---------------------------------------------------------------------------|
G|---------------------------------------------------------------------------|
C|--77777777-0000-1111-3333-000000-77777777-0000-111111-333333---------------|
PM


D|---------------------------------------------------------------------------|
A|---------------------------------------------------------------------------|
F|---------------------------------------------------------------------------|
C|---------------------------------------------------------------------------|
G|-----------------------------------------------444444-777777---------------|
C|--77777777-0000-1111-3333-000000-77777777-0000-----------------------------|
PM


D|---------------------------------------------------------------------------|
A|---------------------------------------------------------------------------|
F|---------------------------------------------------------------------------|
C|--8\7---11--8---8\7---------------8\7---11--8---8--------------------------|
G|--6\5---9---6---6\5---------------6\5---9---6---6-555555-666666------------|
C|------0---0---0-----0-000-0-000-0-----0---0---0----------------------------|
PM      .   .   .     . ... . ... .     .   .   .   ...... ......


D|---------------------------------------------------------------------------|
A|---------------------------------------------------------------------------|
F|---------------------------------------------------------------------------|
C|--8\7---11--8---8\7---------------8\7---11--8---8--------------------------|
G|--6\5---9---6---6\5---------------6\5---9---6---6-555555-666666------------|
C|------0---0---0-----0-000-0-000-0-----0---0---0----------------------------|
PM      .   .   .     . ... . ... .     .   .   .   ...... ......


D|---------------------------------------------------------------------------|
A|---------------------------------------------------------------------------|
F|---------------------------------------------------------------------------|
C|---------------------------------------------------------------------------|
G|---------------------------------------------------------------------------|
C|--77777777-0000-1111-3333-000000-77777777-0000-111111-333333---------------|
PM


D|---------------------------------------------------------------------------|
A|---------------------------------------------------------------------------|
F|---------------------------------------------------------------------------|
C|---------------------------------------------------------------------------|
G|-----------------------------------------------444444-777777---------------|
C|--77777777-0000-1111-3333-000000-77777777-0000-----------------------------|
PM

                                    
D|------------------------------------------------|--------------------------|second guitar plays
A|------------------------------------------------|--------------------------|this
F|------------------------------------------------|---7777777b7777777--------|
C|--0~~-------------------------------------------|--------------------------|
G|--0~~-------------------------------------------|--------------------------|
C|--0~~-------------------------------------------|--------------------------|
PM


D|---------------------------------------------------------------------------|
A|---------------------------------------------------------------------------|
F|---------------------------------------------------------------------------|
C|--0-0-0-0~-0~-0-0-0-0-0-0--0-0-0-0~-0~-0-0-0-0-0-0-0-0-0-0-0-0~-0~---------|
G|--0-0-0-0~-0~-0-0-0-0-0-0--0-0-0-0~-0~-0-0-0-0-0-0-0-0-0-0-0-0~-0~---------|
C|--0-0-0-0~-0~-0-0-0-0-0-0--0-0-0-0~-0~-0-0-0-0-0-0-0-0-0-0-0-0~-0~---------|
PM  . . . .  .  . . . . . .  . . . .  .  . . . . . . . . . . . .  .


D|---------------------------------------------------------------------------|
A|---------------------------------------------------------------------------|
F|---------------------------------------------------------------------------|
C|--0-0-0-0-0-0--0-0-0-0~-0~-0-0-0-0-0-0-0-0-0-0-0-0~-0~-0-0-0-0-0-0---------|
G|--0-0-0-0-0-0--0-0-0-0~-0~-0-0-0-0-0-0-0-0-0-0-0-0~-0~-0-0-0-0-0-0---------|
C|--0-0-0-0-0-0--0-0-0-0~-0~-0-0-0-0-0-0-0-0-0-0-0-0~-0~-0-0-0-0-0-0---------|
PM  . . . . . .  . . . .  .  . . . . . . . . . . . .  .  . . . . . .


D|---------------------------------------------------------------------------|
A|---------------------------------------------------------------------------|
F|---------------------------------------------------------------------------|
C|--0-0-0-0~-0~-0-0-0-0-0-0-0-0-0-0-0-0~-0~-0-0-0-0-0-0--0-0-0-0~-0~---------|
G|--0-0-0-0~-0~-0-0-0-0-0-0-0-0-0-0-0-0~-0~-0-0-0-0-0-0--0-0-0-0~-0~---------|
C|--0-0-0-0~-0~-0-0-0-0-0-0-0-0-0-0-0-0~-0~-0-0-0-0-0-0--0-0-0-0~-0~---------|
PM  . . . .  .  . . . . . . . . . . . .  .  . . . . . .  . . . .  .


D|---------------------------------------------------------------------------|
A|---------------------------------------------------------------------------|
F|---------------------------------------------------------------------------|
C|--0-0-0-0-0-0-0-0-0-0-0-0--------------------------------------------------|
G|--0-0-0-0-0-0-0-0-0-0-0-0--------------------------------------------------|
C|--0-0-0-0-0-0-0-0-0-0-0-0--------------------------------------------------|
PM  . . . . . . . . . . . .

1:15 - 1:37
D|---------------------------------------------------------------------------|
A|---------------------------------------------------------------------------|
F|------------havent figured out solo yet------------------------------------|
C|---------------------------------------------------------------------------|
G|---------------------------------------------------------------------------|
C|---------------------------------------------------------------------------|
PM  

D|---------------------------------------------------------------------------|
A|---------------------------------------------------------------------------|
F|---------------------------------------------------------------------------|
C|--8\7---11--8---8\7---------------8\7---11--8---8-7~-8~--------------------|
G|--6\5---9---6---6\5---------------6\5---9---6---6-5~-6~--------------------|
C|------0---0---0-----0-000-0-000-0-----0---0---0----------------------------|
PM      .   .   .     . ... . ... .     .   .   .

D|---------------------------------------------------------------------------|
A|---------------------------------------------------------------------------|
F|---------------------------------------------------------------------------|
C|--8\7---11--8---8\7---------------8\7---11--8---11--8----------------------|
G|--6\5---9---6---6\5---------------6\5---9---6---9---6----------------------|
C|------0---0---0-----0-000-0-000-0-----0---0---0---0---0-0-0-0-0-0----------|
PM      .   .   .     . ... . ... .     .   .   .   .   . . . . . .

D|---------------------------------------------------------------------------|
A|---------------------------------------------------------------------------|
F|---------------------------------------------------------------------------|
C|--8\7---11--8---8\7---------------8\7---11--8---8--------------------------|
G|--6\5---9---6---6\5---------------6\5---9---6---6-555555-666666------------|
C|------0---0---0-----0-000-0-000-0-----0---0---0----------------------------|
PM      .   .   .     . ... . ... .     .   .   .   ...... ......

D|---------------------------------------------------------------------------|
A|---------------------------------------------------------------------------|
F|---------------------------------------------------------------------------|
C|--8\7---11--8---8\7---------------8\7---11--8---8--------------------------|
G|--6\5---9---6---6\5---------------6\5---9---6---6-555555-666666------------|
C|------0---0---0-----0-000-0-000-0-----0---0---0----------------------------|
PM      .   .   .     . ... . ... .     .   .   .   ...... ......

D|---------------------------------------------------------------------------|
A|---------------------------------------------------------------------------|
F|---------------------------------------------------------------------------|
C|--8\7---11--8---8\7---------------8\7---11--8---8--------------------------|
G|--6\5---9---6---6\5---------------6\5---9---6---6-555555-666666------------|
C|------0---0---0-----0-000-0-000-0-----0---0---0----------------------------|
PM      .   .   .     . ... . ... .     .   .   .   ...... ......

D|---------------------------------------------------------------------------|
A|---------------------------------------------------------------------------|
F|---------------------------------------------------------------------------|
C|--8\7---11--8---8\7---------------8\7---11--8---8--------------------------|
G|--6\5---9---6---6\5---------------6\5---9---6---6-555555-666666------------|
C|------0---0---0-----0-000-0-000-0-----0---0---0----------------------------|
PM      .   .   .     . ... . ... .     .   .   .   ...... ......

D|------------------------------------------------|--------------------------|second guitar plays
A|------------------------------------------------|--------------------------|this
F|------------------------------------------------|---7777777b7777777--------|
C|--0~~-------------------------------------------|--------------------------|
G|--0~~-------------------------------------------|--------------------------|
C|--0~~-------------------------------------------|--------------------------|
PM

D|---------------------------------------------------------------------------|
A|---------------------------------------------------------------------------|
F|---------------------------------------------------------------------------|
C|--0-0-0-0~-0~-0-0-0-0-0-0--0-0-0-0~-0~-0-0-0-0-0-0-0-0-0-0-0-0~-0~---------|
G|--0-0-0-0~-0~-0-0-0-0-0-0--0-0-0-0~-0~-0-0-0-0-0-0-0-0-0-0-0-0~-0~---------|
C|--0-0-0-0~-0~-0-0-0-0-0-0--0-0-0-0~-0~-0-0-0-0-0-0-0-0-0-0-0-0~-0~---------|
PM  . . . .  .  . . . . . .  . . . .  .  . . . . . . . . . . . .  .

D|---------------------------------------------------------------------------|
A|---------------------------------------------------------------------------|
F|---------------------------------------------------------------------------|
C|--0-0-0-0-0-0~--0-0-0-0~-0~-0-0-0-0-0-0-0-0-0-0-0-0~-0~-0-0-0-0-0-0~-------|
G|--0-0-0-0-0-0~--0-0-0-0~-0~-0-0-0-0-0-0-0-0-0-0-0-0~-0~-0-0-0-0-0-0~-------|
C|--0-0-0-0-0-0~--0-0-0-0~-0~-0-0-0-0-0-0-0-0-0-0-0-0~-0~-0-0-0-0-0-0~-------|
PM  . . . . . .   . . . .  .  . . . . . . . . . . . .  .  . . . . . .

D|---------------------------------------------------------------------------|
A|---------------------------------------------------------------------------|
F|---------------------------------------------------------------------------|
C|--0-0-0-0~-0~-0-0-0-0-0-0-0-0-0-0-0-0~-0~-0-0-0-0-0-0~--0-0-0-0~-0~--------|
G|--0-0-0-0~-0~-0-0-0-0-0-0-0-0-0-0-0-0~-0~-0-0-0-0-0-0~--0-0-0-0~-0~--------|
C|--0-0-0-0~-0~-0-0-0-0-0-0-0-0-0-0-0-0~-0~-0-0-0-0-0-0~--0-0-0-0~-0~--------|
PM  . . . .  .  . . . . . . . . . . . .  .  . . . . . .   . . . .  .

D|---------------------------------------------------------------------------|
A|---------------------------------------------------------------------------|
F|---------------------------------------------------------------------------|
C|--0-0-0-0-0-0-0-0-0-0-0-0--------------------------------------------------|
G|--0-0-0-0-0-0-0-0-0-0-0-0--------------------------------------------------|
C|--0-0-0-0-0-0-0-0-0-0-0-0--------------------------------------------------|
PM  . . . . . . . . . . . .


************************************

| /   slide up
| \   slide down
| h   hammer-on
| p   pull-off
| ~   hold note
| +   harmonic
| x   Mute note
| b   Bend
| pb  Pre-bend
| br  Bend release
| pbr Pre-bend release
| brb Bend release bend
| v   Vibrato

************************************
Добавлено: 10.06.2013
Другие материалы по этой песне:
  • Аккорды и текст

Страница создана 10.06.2013
http://primanota.ru/as-i-lay-dying/from-shapeless-to-breakable-chords.htm
Привет, Гость.
Предлагаем пройти революционный курс по гитаре.
Подарок от PrimaNota.Ru, забирай!