PrimaNota.ru - самый крупный в мире бесплатный архив песенных текстов, аккордов, табулатур и нот


As Hell Retreats - Only Hope - таба, видео

Регистрация Запомнить меня
Войти через:  Facebook Google Twitter Vk Yandex Mail.ru

As Hell Retreats - Only Hope - таба, видео

Печатать
Просмотров: 25
Quick intro to Only Hope - I'm trying to work the rest out, however it's a seven string song and I only have 
six... So bear with me for a bit.

e|---------------------|
B|---------------------|
G|---------------------|
D|---------------------| 
A|-0---2--4--2---------|
E|-0---2--4--2---------|
A|-0---2--4--2---------|x2

e|------------------------------------------|
B|------------------------------------------|
G|------------------------------------------|
D|------------------------------------------| 
A|-------2-----2h4p2--------2------2h4p2p0--|
E|----------------------------------------4-|
A|-0-0-0---0-0--------0-0-0---0-0-----------|
PM . . .   . .        . . .   . . 

e|------------------------------------------|
B|------------------------------------------|
G|------------------------------------------|
D|--------------------------------------6---| 
A|-------2-----2h4p2--------2------2h4p2----|
E|---------------------------------------7--|
A|-0-0-0---0-0--------0-0-0---0-0-----------|
PM . . .   . .        . . .   . . 

I think that's more or less right. More to come.
Добавлено: 28.12.2015
Другие материалы по этой песне:
  • Аккорды и текст

Страница создана 28.12.2015
http://primanota.ru/as-hell-retreats/only-hope-chords.htm
Привет, Гость.
Предлагаем пройти революционный курс по гитаре.
Подарок от PrimaNota.Ru, забирай!