PrimaNota.ru - самый крупный в мире бесплатный архив песенных текстов, аккордов, табулатур и нот


As Cities Burn - Terrible How Terrible For The Great City - аккорды и текст, таба, видео

Регистрация Запомнить меня
Войти через:  Facebook Google Twitter Vk Yandex Mail.ru

As Cities Burn - Terrible How Terrible For The Great City - аккорды и текст, таба, видео

Печатать
Просмотров: 152
Terrible How Terrible For The Great City
As Cities Burn
ok, so i mostly play acoustic and i couldnt find chords for this song soooo here i go lol

heres a link to the song http://www.youtube.com/watch?v=1QXe6gmM-SU
 
Drop D


 (0:03) F#madd11/C#                      F#5/E   

am I a monster when I sink my teeth into her

               B 

when I don't love her

             Bm6                               F#madd11/C#                
           
no, I don't love you forgive me darling, but love has nothing

F#5/E 

 to do with this

                          B 
it has nothing to do with how I can't stop

         Bm6~ 
until I get what I want from you....


|-----------------|-----------------|-----------------|-------------------|
|-----------------|-----------------|-----------------|-------------------|
|-6-6-6-6-6-6-6-6-|-6-6-6-6-6-6-6-6-|-7-7-7-7-7-7-7-7-|-7-7-7-7-7-7-7\----|
|-x-x-x-x-x-x-x-x-|-x-x-x-x-x-x-x-x-|-x-x-x-x-x-x-x-x-|-x-x-x-x-x-x-6\----|
|-4-4-4-4-4-4-4-4-|-4-4-4-4-4-4-4-4-|-5-5-5-5-5-5-5-5-|-5-5-5-5-5-5-5\----|
|-----------------|-----------------|-----------------|-------------------|

  this is what real men keep quiet      it doesn't exist if you can hide it

   F#5                         
 behind your teeth

 D5                       F#5
and sleep at night next to your wife

         E5
who you love too much to tell her

|-------------|-------------|
|-------------|-------------|
|-----2-------|---2-1-(1)2--|
|-----------2-|-4---4-------|
|-------2-4---|--------2h4--|
|-2-4---------|-------------|

you don't love her at all ^ 

  F#madd11/C#
I just feel as empty as the lungs!

    
  F#5/E
of those waiting in the womb!

 B                                         Bm6
do you feel as empty as the lungs of those waiting


to come into this world!?
   
(breakdown)                                               3X
||--------------|-----------|----------|-----------||
||o-------------|-----------|----------|----------o||
||--6---13-13\--|-6---9-9\--|-6-6-13\--|-6-6-13\---||
||--x----x--x---|-x---x-x---|-x-x--x---|-x-x--x----||
||o-4---11-11\--|-4---7-7\--|-4-4-11\--|-4-4-11\--o||
||--------------|-----------|----------|-----------||

  
                    Bm6
 3/4                      4/4
                           PM
|-------------|----------|-------------------------------|
|-------------|-----3-3--|---3-3-3-3-3-3-3-3-3-3-3-3-3-3-|
|-6---13-13\--|-6---1-1--|---1-1-1-1-1-1-1-1-1-1-1-1-1-1-|
|-x----x--x---|-x---0-0--|---0-0-0-0-0-0-0-0-0-0-0-0-0-0-|
|-4---11-11\--|-4---2-2--|-2-2-2-2-2-2-2-2-2-2-2-2-2-2-2-|
|-------------|----------|-2-----------------------------|


F#5
where being beautiful means being used

D5 
how long will we blame the devils on our shoulders

F#5                        E5 
and pose like angels on the outside


when all I am is a monster...


D7M  
when all I am is a monster


D5
when all I am is a monster


B5/E
when all I am is a monster

D7M  
when all I am is a monster

C#5
when all I am is a monster

D5
when all I am is a monster

F#5/D
when all I am is a monster...

                                                                        3X
|-----------------|-----------------|-----------------|-------------------|
|-----------------|-----------------|-----------------|-------------------|
|-6-6-6-6-6-6-6-6-|-6-6-6-6-6-6-6-6-|-7-7-7-7-7-7-7-7-|-7-7-7-7-7-7-7\----|
|-x-x-x-x-x-x-x-x-|-x-x-x-x-x-x-x-x-|-x-x-x-x-x-x-x-x-|-x-x-x-x-x-x-6\----|
|-4-4-4-4-4-4-4-4-|-4-4-4-4-4-4-4-4-|-5-5-5-5-5-5-5-5-|-5-5-5-5-5-5-5\----|
|-----------------|-----------------|-----------------|-------------------|

  this is what real men keep quiet      it doesn't exist if you can hide it

outro 
|---------------------|-------------------------|
|---------------------|-------------------------|
|--6-6-6--9-9-9-11-11-|-11-13-13-13-14-14-14-14-|
|--x-x-x--x-x-x--x--x-|--x--x--x--x--x--x--x--x-|
|--4-4-4--7-7-7--9--9-|--9-11-11-11-12-12-12-12-|
|---------------------|-------------------------|


|-----------------------|--------------------------|
|-----------------------|--------------------------|
|--9-9-9-11-11-11-13-13-|-13-14-14-14-16-16-16-16--|
|--x-x-x--x--x--x--x--x-|--x--x--x--x--x--x--x--x--|
|--7-7-7--9--9--9-11-11-|-11-12-12-12-14-14-14-14--|
|-----------------------|--------------------------|

|-------------------------|-----------------------------|
|-------------------------|-----------------------------|
|-11-11-11-13-13-13-14-14-|-14-16-16-16-18---18b19r(18)-|
|--x--x--x--x--x--x--x--x-|--x--x--x--x--x----xb19r=(x)-|
|--9--9--9-11-11-11-12-12-|-12-14-14-14-16---16b17r(16)-|
|-------------------------|-----------------------------|

    ~~~~~~~~~~~~~~~~~~~~~~~~~~~~~~~~~~~~~
|---------------------|--------------------------*|
|---------------------|--------------------------*|
|-18-----18-----18----|-(18)-18------18---18\----*|
|--x------x------x----|--(x)--x-------x----x\----*|
|-16-----16-----16----|-(16)-16------16---16\----*|
|---------------------|--------------------------*|
 bend this whole thing ^



Добавлено: 26.04.2012
Другие материалы по этой песне:

Страница создана 01.04.2012
http://primanota.ru/as-cities-burn/terrible-how-terrible-for-the-great-city-chords.htm
Привет, Гость.
Предлагаем пройти революционный курс по гитаре.
Подарок от PrimaNota.Ru, забирай!