PrimaNota.ru - самый крупный в мире бесплатный архив песенных текстов, аккордов, табулатур и нот


As Cities Burn - Petty - таба, видео

Регистрация Запомнить меня
Войти через:  Facebook Google Twitter Vk Yandex Mail.ru

As Cities Burn - Petty - таба, видео

Печатать
Просмотров: 97
Drop C#

Guitar 1
[0:00]-[0:36]
|----------------------------------------------------------------|
|----------4p0-------------------------------4p0-----------------|
|--4/6----------------6-----6-----6--4/6----------------6-----6--|
|--4/6----------------6-----6-----6--4/6----------------6-----6--|
|------9-6-----6\4--4---4-4---4-4--------9-6------6\4-4---4-4----|
|----------------------------------------------------------------|
|pm                 .   . .   . .                     .   . .
|
|--------------------------------------------|
|--------------------------------------------|
|--9---------13p9--------11-----11-------11--|
|--9h11-9----------------11-----11-------11--|
|---------11------11p9-9----9-9----11-11-----|
|--------------------------------------------|
|pm                    .    . .    .  .
|
|----------------------------------------------------------------|
|----------4p0-------------------------------4p0-----------------|
|--4/6----------------6-----6-----6--4/6----------------6-----6--|
|--4/6----------------6-----6-----6--4/6----------------6-----6--|
|------9-6-----6\4--4---4-4---4-4--------9-6------6\4-4---4-4----|
|----------------------------------------------------------------|
|pm                 .   . .   . .                     .   . .
|
|--------------------------------------------------------------|
|--------------------------------------------------------------|
|--9---------13p9--------11-----11-------13-------11-11-11-11--|
|--9h11-9----------------11-----11-------13-------11-11-11-11--|
|---------11------11p9-9----9-9----11-11----11-11--------------|
|--------------------------------------------------------------|
|pm                    .    . .    .  .     .  .

Guitar 1
[0:36]-[0:48]
|----------------------------------------------|
|----------------------------------------------|
|--13p9----------------------------------------|
|-------11/14--13p9-----------------9p6--------|
|-------------------11/14---2/4//7h9----9p7-4--|
|----------------------------------------------|
|
|x2

Guitar 2
[0:41]-[0:43]          [0:47]-[0:49]
|---------------------------------|
|-----------9~---------9----------|
|---------6-------------------9~--|
|--11---9----------------9-11-----|
|---------------------------------|
|---------------------------------|

Guitar 1 
[1:09]-[1:28]
|----------------------------------------------------------------|
|----------4p0-------------------------------4p0-----------------|
|--4/6----------------6-----6-----6--4/6----------------6-----6--|
|--4/6----------------6-----6-----6--4/6----------------6-----6--|
|------9-6-----6\4--4---4-4---4-4--------9-6------6\4-4---4-4----|
|----------------------------------------------------------------|
|pm                 .   . .   . .                     .   . .
|
|--------------------------------------------------------------|
|--------------------------------------------------------------|
|--9---------13p9--------11-----11-------13-------11-11-11-11--|
|--9h11-9----------------11-----11-------13-------11-11-11-11--|
|---------11------11p9-9----9-9----11-11----11-11--------------|
|--------------------------------------------------------------|
|pm                    .    . .    .  .     .  .

Guitar 1
[1:28]-[1:46]
|--------------------------------------------------|
|--------------------------------------------------|
|--6-6-6-6----8-8-8-8----9-9-9-9----11-11-11-11----|
|--6-6-6-6----8-8-8-8----9-9-9-9----11-11-11-11----|
|--4-4-4-4x12-6-6-6-6-x4-7-7-7-7-x4-9--9--9--9-x4--|
|--------------------------------------------------|


Guitar 2
[1:28]-[1:46]
|--9--9--9--9-------4-4-4-4-----5-5-5-5-----7-7-7-7----|
|--9--9--9--9-------5-5-5-5-----5-5-5-5-----7-7-7-7----|
|--9--9--9--9-------6-6-6-6-x4--6-6-6-6-x4--6-6-6-6x4--|
|--11-11-11-11-x12-------------------------------------|
|------------------------------------------------------|
|------------------------------------------------------|

Guitar 2
[2:05]-[2:54]
|----------------------------------------------------|
|--9----------9----4------4---4--7--10--7------4-4---|
|-------9--9----------6-6------------------5-5-------|
|----11--11-11-11---7--7-7-7---7------------7-7-6-6--|
|----------------------------------------------------|
|----------------------------------------------------|
|
|x4

Guitar 1
[2:30]-[2:54]
|--------19-16--16--------------------------------------|
|--16-17----------16--16--------------------------------|
|-----------------------16--13-14p13-14p13-14p13-14p13--|
|-------------------------------------------------------|
|-------------------------------------------------------|
|-------------------------------------------------------|
|
|--------17-16--16-14--14-------------------------------|
|--14-17-----------------13-13/16h17-16h17-16h17-16h17--|
|-------------------------------------------------------|
|-------------------------------------------------------|
|-------------------------------------------------------|
|-------------------------------------------------------|
|
|x2

Guitar 1
[3:00]-[3:30]
|---------------------------------------------------|
|---------------------------------------------------|
|--6-6-6-6----8-8-8-8----9-9-9-9----11-11-11-11-----|
|--6-6-6-6----8-8-8-8----9-9-9-9----11-11-11-11-----|
|--4-4-4-4-x4-6-6-6-6-x4-7-7-7-7-x4-9--9--9--9--x4--|
|---------------------------------------------------|
|
|--------------------------------------------------|
|--------------------------------------------------|
|--6-6-6-6----8-8-8-8----9-9-9-9----11-11-11-11----|
|--6-6-6-6----8-8-8-8----9-9-9-9----11-11-11-11----|
|--4-4-4-4x12-6-6-6-6-x4-7-7-7-7-x4-9--9--9--9-x4--|
|--------------------------------------------------|



Guitar 2
[3:00]-[3:30]
|--9--9--9--9----4-4-4-4-----5-5-5-5-----7-7-7-7-----|
|--9--9--9--9----5-5-5-5-----5-5-5-5-----7-7-7-7-----|
|--9--9--9--9----6-6-6-6-x4--6-6-6-6-x4--6-6-6-6-x4--|
|--11-11-11-11x4-------------------------------------|
|----------------------------------------------------|
|----------------------------------------------------|
|
|--9--9--9--9----4-4-4-4-----5-5-5-5-----7-7-7-7-----|
|--9--9--9--9----5-5-5-5-----5-5-5-5-----7-7-7-7-----|
|--9--9--9--9----6-6-6-6-x4--6-6-6-6-x4--6-6-6-6-x4--|
|--11-11-11-11x12------------------------------------|
|----------------------------------------------------|
|----------------------------------------------------|

Guitar 1
[3:34]-[3:37]
|--------17-16--16-14--14----|
|--14-17-----------------13--|
|----------------------------|
|----------------------------|
|----------------------------|
|----------------------------|
Добавлено: 18.09.2013
Другие материалы по этой песне:
  • Аккорды и текст

Страница создана 18.09.2013
http://primanota.ru/as-cities-burn/petty-chords.htm
Привет, Гость.
Предлагаем пройти революционный курс по гитаре.
Подарок от PrimaNota.Ru, забирай!