PrimaNota.ru - самый крупный в мире бесплатный архив песенных текстов, аккордов, табулатур и нот


As Cities Burn - New Sun - бас-таба, видео

Регистрация Запомнить меня
Войти через:  Facebook Google Twitter Vk Yandex Mail.ru

As Cities Burn - New Sun - бас-таба, видео

Печатать
Просмотров: 127
-----------------------------------------------------------------------------
			     New Sun – As Cities Burn
-----------------------------------------------------------------------------

Tabbed By : ryan s
e-mail:

Tuning:standard

	Starts at 1:18
G|---------------------------------------------------------------------------|
D|---------------------------------------------------------------------------|
A|-------------------------------------4-4-4-4-------------------------------|
E|-1/4-4-4-4-4-4-4-1/4-4-4-4-4-4-4-1/4---------0-0-3-3-----------------------|

	1:40 the same thing just more notes
G|---------------------------------------------------------------------------|
D|---------------------------------------------------------------------------|
A|-------------------------------------------------------4-4-4-4-4-4-4-4-----|
E|-1/4-4-4-4-4-4-4-4-4-4---4-1/4-4-4-4-4-4-4-4-4-4-4-1/4---------------------|

G|---------------------------------------------------------------------------|
D|---------------------------------------------------------------------------|
A|---------------------------------------------------------------------------|
E|-0-0-0-0-3-3-3-3-4---------------------------------------------------------|

	2:08
G|---------------------------------------------------------------------------|
D|---------------------------------------------------------------------------|
A|-1/11-11\7-7\6-6\1---------------------------------------------------------|
E|---------------------------------------------------------------------------|

	2:15
G|---------------------------------------------------------------------------|
D|---------------------------------------------------------------------------|
A|-------------------------------4-4-4-4-------------------------------------|
E|-4-4-4-4-4-4-1/4-4-4-4-4-4-6-7---------0-0-3-3-----------------------------|

2:37-2:49 no bass

	2:50 (play this twice)
G|---------------------------------------------------------------------------|
D|---------------------------------------------------------------------------|
A|------------------------------------------------------------4-4-4-4--------|
E|-4-4-4\1-1-1-1/4-4-4-4\1-1-1-1/4-4-4-4\1-1-1-1/4-4-4\1-1/4---------0-0-3-3-|

	3:11
G|---------------------------------------------------------------------------|
D|---------------------------------------------------------------------------|
A|---------------------------------4-4-4-4-4-4-4-4---------------------------|
E|-4-0-0-4-0-0-1/4-4-0-0-4-0-0-1/4-----------------0-0-0-0-3-3-3-3-4---------|

	3:29
G|---------------------------------------------------------------------------|
D|---------------------------------------------------------------------------|
A|---------------------------------------------------------------------------|
E|-4-4-4-4-4-4-4-4-4-4-4-4-4-4-4-4-0-0-0-0-0-0-0-0-0-0-0-0-0-0-0-0-----------|

G|---------------------------------------------------------------------------|
D|---------------------------------------------------------------------------|
A|---------------------------------------------------------------------------|
E|-2-2-2-2-2-2-2-2-2-2-2-2-2-2-2-2-4-4-4-4-4-4-4-4-4-4-4-4-4-4-4-4-----------|

G|---------------------------------------------------------------------------|
D|---------------------------------------------------------------------------|
A|---------------------------------------------------------------------------|
E|-2-2-2-2-2-2-2-2-2-2-2-2-2-2-2-2-0-0-0-0-0-0-0-0-0-0-0-0-0-0-0-0-----------|

G|---------------------------------------------------------------------------|
D|---------------------------------------------------------------------------|
A|---------------------------------------------------------------------------|
E|-2-2-2-2-2-2-2-2-0-0-0-0-2-2-2-2-4-4-4-4-4-4-4-4-4-4-4-4-4-4-4-4-----------|

G|---------------------------------------------------------------------------|
D|---------------------------------------------------------------------------|
A|---------------------------------------------------------------------------|
E|-2-2-2-2-2-2-2-2-2-2-2-2-2-2-2-2-0-0-0-0-0-0-0-0-0-0-0-0-0-0-0-0-----------|

G|---------------------------------------------------------------------------|
D|---------------------------------------------------------------------------|
A|---------------------------------------------------------------------------|
E|-2-2-2-2-2-2-2-2-0-0-0-0-2-2-2-2-------------------------------------------|


| /  slide up
| \  slide down
| h  hammer-on
| p  pull-off
| ~  vibrato
| +  harmonic
| x  Mute note
===============================================================================
Добавлено: 07.05.2012
Другие материалы по этой песне:
  • Аккорды и текст

Страница создана 07.05.2012
http://primanota.ru/as-cities-burn/new-sun-chords.htm
Привет, Гость.
Предлагаем пройти революционный курс по гитаре.
Подарок от PrimaNota.Ru, забирай!