PrimaNota.ru - самый крупный в мире бесплатный архив песенных текстов, аккордов, табулатур и нот


As Cities Burn - Into The Sea - таба, бас-таба, видео

Регистрация Запомнить меня
Войти через:  Facebook Google Twitter Vk Yandex Mail.ru

As Cities Burn - Into The Sea - таба, бас-таба, видео

Печатать
Просмотров: 222
band : as cites burn
song : into the sea
album : hel or high water
www.myspace.com/ascitiesburn

here it is not sure about some of the chords... but its really close and plays 
nicely with the song.

e|----------------------------------------------|
b|--------4---9-7------------9-7----------------|
g|--------4--------4-6~4----------4-6~-4/8------|continued  
d|--4/6---6--------------6~------------6/9-9-11-|         
a|----------------------------------------------|
d|----------------------------------------------|

e|---7------------------------------4--------4--|
b|--7--7----------7-kinda rake--7---4--------4--|
g|-8-----8---6--8-8-up on this--8---4--puase-4--|
d|---------8--------chord->-----8/6-6--------6--|
a|----------------------------------------------|
d|----------------------------------------------|



question or fixes email me!

fearbefore_baby@hotmai.com
Добавлено: 26.04.2012
Другие материалы по этой песне:
  • Аккорды и текст

Страница создана 26.04.2012
http://primanota.ru/as-cities-burn/into-the-sea-chords.htm
Привет, Гость.
Предлагаем пройти революционный курс по гитаре.
Подарок от PrimaNota.Ru, забирай!