PrimaNota.ru - самый крупный в мире бесплатный архив песенных текстов, аккордов, табулатур и нот


As Cities Burn - Clouds - бас-таба, видео

Регистрация Запомнить меня
Войти через:  Facebook Google Twitter Vk Yandex Mail.ru

As Cities Burn - Clouds - бас-таба, видео

Печатать
Просмотров: 138
-------------------------------------------------------------------------------
			     Clouds – As Cities Burn
-------------------------------------------------------------------------------

Tabbed By : ryan
e-mail:

Tuning:standard

Doesn't start till 1:55

	Play this three times
G|---------------------------------------------------------------------------|
D|---------------------------------------------------------------------------|
A|-2-2-2-2-2-2-2-2-2-2-2-2-2-2-2-2-6-6-6-6-6-6-6-6-4-4-4-4-4-4-4-4-----------|
E|---------------------------------------------------------------------------|

	Then this once at 2:22
G|---------------------------------------------------------------------------|
D|---------------------------------------------------------------------------|
A|-2-2-2-2-2-2-2-2-2-2-2-2-2-2/4-4/6-6-6-6-6-6-6-2~--------------------------|
E|---------------------------------------------------------------------------|

Chorus:2:34
G|---------------------------------------------------------------------------|
D|---------------------------------------------------------------------------|
A|-2-2-2-2-2-2-2-2-4-4-4-4-4-4-4-4-6-6-6-6-6-6-6-6---------------------------|
E|--------------------------------------------------4-4-4-4-6-6-1-1----------|

	3:19
G|---------------------------------------------------------------------------|
D|---------------------------------------------------------------------------|
A|-2-2-2-2-2-2-2-2-2-2-2-2-2-2-2-2-6-6-6-6-6-6-6-6-4-4-4-4-4-4-4-4-----------|
E|---------------------------------------------------------------------------|

G|---------------------------------------------------------------------------|
D|---------------------------------------------------------------------------|
A|-2-2-2-2-2-2-2-2-2-2-2-2-2-2/4-4/6-6-6-6-6-6-6-2~--------------------------|
E|---------------------------------------------------------------------------|

	3:34 play this twice
G|---------------------------------------------------------------------------|
D|---------------------------------------------------------------------------|
A|-2-2-2-2-2-2-2-2-4-4-4-4-4-4-4-4-6-6-6-6-6-6-6-6---------------------------|
E|--------------------------------------------------4-4-4-4-6-6-1-1----------|

	4:05 till the end of the song
G|---------------------------------------------------------------------------|
D|---------------------------------------------------------------------------|
A|-6-6-6-6-6-6-6-6-4-4-4-4-4-4-4-4-2-2-2-2-2-2-2-2---------------------------|
E|-------------------------------------------------4-4-4-4-6-6-1-1-----------|

| /  slide up
| \  slide down
| h  hammer-on
| p  pull-off
| ~  vibrato
| +  harmonic
| x  Mute note
===============================================================================
Добавлено: 06.07.2012
Другие материалы по этой песне:
  • Аккорды и текст

Страница создана 06.07.2012
http://primanota.ru/as-cities-burn/clouds-chords.htm
Привет, Гость.
Предлагаем пройти революционный курс по гитаре.
Подарок от PrimaNota.Ru, забирай!