PrimaNota.ru - самый крупный в мире бесплатный архив песенных текстов, аккордов, табулатур и нот


As Cities Burn - Capo - бас-таба, видео

Регистрация Запомнить меня
Войти через:  Facebook Google Twitter Vk Yandex Mail.ru

As Cities Burn - Capo - бас-таба, видео

Печатать
Просмотров: 221
Уроки эстрадного вокала в Санкт-Петербурге
-------------------------------------------------------------------------------
			     Capo - As Cities burn
-------------------------------------------------------------------------------

Tabbed By : Jesse Forney
e-mail: mjsstujo@yahoo.com

Tuning:EADG

Intro:
G|-----4-4-7-0-4---------------------------------------------------------|
D|----------------------2-2--4----------4---0-0-0--------2-2--4----------| x3
A|-------------------------------2-2---------------------------------0-0-|
E|-----------------------------------------------------------------------|
            
G|----------|---4-4-7-0-4---------------------------------------------------|
D|----------|----------------2-2--4----------4---0-0-0--------2-2-----------|
A|---0-0----|-----------------------2-2-------------------------------------|
E|----------|---------------------------------------------------------------|

Chorus
G|-----------------------------------44444444444444442222222222222222--|
D|---55555555555555552222222222222222----------------------------------| x2
A|---------------------------------------------------------------------|
E|---------------------------------------------------------------------|

Bridge 1
G|---44--4--44---44--4--44--------------------------------------------|
D|--------------------------------------------------------------------|
A|--------------------------------------------------------------------|
E|--------------------------------------------------------------------|

Verse Intro
G|---------7-0-4-------------------------------------------------------|
D|----------------------2-2--4----------4---0-0-0--------2-2--4--------|
A|-------------------------------2-2-------------------------------0-0-|
E|---------------------------------------------------------------------|

Verse
G|-----4-4-7-0-4-------------------------------------------------------|
D|----------------------2-2--4----------4---0-0-0--------2-2--4--------| 
A|-------------------------------2-2-------------------------------0-0-|
E|---------------------------------------------------------------------|



Breakdowny thing
G|-------------------------------------------------------------------------|
D|----------------------2-2--4---------------------------------------------| 
A|-------------------------------2-2---------------------------------------|
E|-------------------------------------------------------------------------|

G|-----4-4-7-0-4---------------------------------------------------------|
D|----------------------------------------4---0-0-0----------------------| 
A|-----------------------------------------------------------------------|
E|-----------------------------------------------------------------------|

Chorus
G|--------------------------------44444444444444442222222222222222---|
D|---55555555555555552222222222222-----------------------------------| x2
A|-------------------------------------------------------------------|
E|-------------------------------------------------------------------|

Verse 2
G|-------------------------------------------------|
D|---55555555555555/1212121212121212121212121212---|
A|-------------------------------------------------|       
E|-------------------------------------------------|         
                                                                                             x3
G|----------------------------------------------|--------|         
D|---55555555555555/1212121212121212\999/121212-|--8-----| the last time ends on 8
A|----------------------------------------------|--------| during the first that just
E|----------------------------------------------|--------| plays 12

Chorus
G|-----------------------------------44444444444444442222222222222222--|
D|---55555555555555552222222222222222----------------------------------| x2
A|---------------------------------------------------------------------|
E|---------------------------------------------------------------------|

Ending
G|-----4-4-7-0-4-------------------------------------------------------|
D|----------------------2-2--4----------4---0-0-0--------2-2--4--------|
A|-------------------------------2-2-------------------------------0-0-|
E|---------------------------------------------------------------------|


| /  slide up
| \  slide down
===============================================================================
Добавлено: 26.06.2012
Другие материалы по этой песне:
  • Аккорды и текст

Страница создана 17.04.2012
http://primanota.ru/as-cities-burn/capo-chords.htm
Привет, Гость.
Предлагаем пройти революционный курс по гитаре.
Подарок от PrimaNota.Ru, забирай!