PrimaNota.ru - самый крупный в мире бесплатный архив песенных текстов, аккордов, табулатур и нот


Artist Vs Poet - Somewhere Else - таба, видео

Регистрация Запомнить меня
Войти через:  Facebook Google Twitter Vk Yandex Mail.ru

Artist Vs Poet - Somewhere Else - таба, видео

Печатать
Просмотров: 102
-------------------------------------------------------------------------------
                             Somewhere Else - Artist Vs Poet
-------------------------------------------------------------------------------
Tabbed by: clemm

Tuning: Standard

Very basic song.  Two riffs that repeat throughout except for the 'bridge' where there is no guitar.

Riff 1
e|----7--6-------------------------------------------------------------------|
B|-----------------7-6-------------------------------------------------------|
G|---8-----6-----3-----------------------------------------------------------|
D|--6----4--4--6-------6-----------------------------------------------------|
A|-------------------4---4---------------------------------------------------|
E|---------------------------------------------------------------------------|

Riff 2
e|----7--6-------------------------------------------------------------------|
B|------------------7-6-/77\6------------------------------------------------|
G|---8-----6------3-----/88\6------------------------------------------------|
D|--6----4--4--66------------------------------------------------------------|
A|--------------------4------------------------------------------------------|
E|---------------------------------------------------------------------------|


Repeat til end
Добавлено: 16.11.2015
Другие материалы по этой песне:
  • Аккорды и текст

Страница создана 16.11.2015
http://primanota.ru/artist-vs-poet/somewhere-else-chords.htm
Привет, Гость.
Предлагаем пройти революционный курс по гитаре.
Подарок от PrimaNota.Ru, забирай!