PrimaNota.ru - самый крупный в мире бесплатный архив песенных текстов, аккордов, табулатур и нот


Artist Vs Poet - Rescue - таба, видео

Регистрация Запомнить меня
Войти через:  Facebook Google Twitter Vk Yandex Mail.ru

Artist Vs Poet - Rescue - таба, видео

Печатать
Просмотров: 160
Tuning Is A Half Step Down and drop D [Db Ab Db Gb Bb Eb]

Intro x2
eb-------------------------------------|
Bb-------------------------------------|
Gb-------------------------------------|
Db--0-12/--5--0--4h5p4-----------------|
Ab--0-12/--5--0--4h5p4-----------------|
Db--0-12/--5--0--4h5p4-----------------|

Verse(Clean) play throughout the whole thing for Guitar 1.
eb----0---0----------------------|
Bb---3-3-3-3---------------------|
Gb--0---0---0--------------------|
Db-------------------------------|
Ab-------------------------------|
Db-------------------------------|

Verse(Distorted) Guitar 2
eb--------------------------------------|
Bb--------------------------------------|
Gb--------------------------------------|
Db--00--22-44-55--55-55-----------------| x2
Ab--00--22-44-55--55-55-----------------|
Db--00--22-44-55--55-55-----------------|
It's a little hard to time but you'll get it.^

Pre Chorus(both guitars)
eb--------------------------------------------|
Bb--------------------------------------------|
Gb--------------------------------------------|
Db--22222222-555555555-00000000-7777777-------| x2
Ab--22222222-555555555-00000000-7777777-------|
Db--22222222-555555555-00000000-7777777-------|
On the second time just hit the 7 once open.^

Chorus (part 1)
eb------------------------------------------|
Bb------------------------------------------|
Gb------------------------------------------|
Db--000000000-777777777-55555555555555-xxxx-|
Ab--000000000-777777777-55555555555555-xxxx-|
Db--000000000-777777777-55555555555555-xxxx-|

Part 2
eb------------------------------------------------------|
Bb------------------------------------------------------|
Gb------------------------------------------------------|
Db--000000000-777777777-5-5-5555-5-5-5555-999999999--7/-|
Ab--000000000-777777777-5-5-5555-5-5-5555-999999999--7/-|
Db--000000000-777777777-5-5-5555-5-5-5555-999999999--7/-|

Re-Intro x2
eb-------------------------------------|
Bb-------------------------------------|
Gb-------------------------------------|
Db--0-12/--5--0--4h5p4-----------------|
Ab--0-12/--5--0--4h5p4-----------------|
Db--0-12/--5--0--4h5p4-----------------|

Verse 2 (Same
eb----0---0----------------------|
Bb---3-3-3-3---------------------|
Gb--0---0---0--------------------|
Db-------------------------------|
Ab-------------------------------|
Db-------------------------------|

Verse(Distorted) Guitar 2
eb--------------------------------------|
Bb--------------------------------------|
Gb--------------------------------------|
Db--00--22-44-55--55-55-----------------| x4
Ab--00--22-44-55--55-55-----------------|
Db--00--22-44-55--55-55-----------------|

Pre Chorus(both guitars)
eb--------------------------------------------|
Bb--------------------------------------------|
Gb--------------------------------------------|
Db--22222222-555555555-00000000-7777777-------| x2
Ab--22222222-555555555-00000000-7777777-------|
Db--22222222-555555555-00000000-7777777-------|
On the second time just hit the 7 once open.^

2nd Chorus (part 1)
eb------------------------------------------------|
Bb-----------------------------------------7b-----|
Gb------------------------------------------------|
Db--000000000-777777777-555555555555555555--------|
Ab--000000000-777777777-555555555555555555--------|
Db--000000000-777777777-555555555555555555--------|

Part 2
eb------------------------------------------------------|
Bb------------------------------------------------------|
Gb------------------------------------------------------|
Db--000000000-777777777-5-5-5555-5-5-5555-999999999--7/-|
Ab--000000000-777777777-5-5-5555-5-5-5555-999999999--7/-|
Db--000000000-777777777-5-5-5555-5-5-5555-999999999--7/-|

Bridge (guitar 1)
eb-------------------------------------------------------------|
Bb-------------------------------------------------------------|
Gb-------------------------------------------------------------|
Db--9-99-9-9-7-5555555-22222p0h2-9-99-9-9-12-5555555-22222p0h2-| x2
Ab--9-99-9-9-7-5555555-22222p0h2-9-99-9-9-12-5555555-22222p0h2-|
Db--9-99-9-9-7-5555555-22222p0h2-9-99-9-9-12-5555555-22222p0h2-|

Bridge (the little fill)
eb------------------------------------|
Bb-7b--9-12-15-----15-12h14p12----12b-|
Gb-9b-----------14b------------14-15b-|
Db------------------------------------|
Ab------------------------------------|
Db------------------------------------|
This part is very sketchy but whatever fiddle with it.^

Post Chorus
eb---------------------------------|
Bb---------------------------------|
Gb---------------------------------|
Db--0------7------5----55555555----|
Ab--0------7------5----55555555----|
Db--0------7------5----55555555----|
                                               
Chorus
eb----------------------------------------------|
Bb------------------------------------------7b--|
Gb----------------------------------------------|
Db--000000000-777777777-55555555555555555-------|
Ab--000000000-777777777-55555555555555555-------|
Db--000000000-777777777-55555555555555555-------|

eb------------------------------------------------------|
Bb------------------------------------------------------|
Gb------------------------------------------------------|
Db--000000000-777777777-5-5-5555-5-5-5555-999999999--7/-|
Ab--000000000-777777777-5-5-5555-5-5-5555-999999999--7/-|
Db--000000000-777777777-5-5-5555-5-5-5555-999999999--7/-|

Outro
eb---------------------------------------|
Bb---------------------------------------|
Gb---------------------------------------|
Db-00-0-12/--5--0--4h5p4-----------------|
Ab-00-0-12/--5--0--4h5p4-----------------|
Db-00-0-12/--5--0--4h5p4-----------------|


h - hammer on
p - pull off
b - bend
/ - slide down the neck

This is kind of a sketchy tab but comment corrections!
You should know where to palm mute.
Enjoy it.
- Dan
Добавлено: 10.05.2012
Другие материалы по этой песне:
  • Аккорды и текст

Страница создана 10.05.2012
http://primanota.ru/artist-vs-poet/rescue-chords.htm
Привет, Гость.
Предлагаем пройти революционный курс по гитаре.
Подарок от PrimaNota.Ru, забирай!