PrimaNota.ru - самый крупный в мире бесплатный архив песенных текстов, аккордов, табулатур и нот


Artist Vs Poet - Gateway - таба, видео

Регистрация Запомнить меня
Войти через:  Facebook Google Twitter Vk Yandex Mail.ru

Artist Vs Poet - Gateway - таба, видео

Печатать
Просмотров: 129
   E              Bsus4               C#m7                Bsu4
d#-----------------------------------------------------------|
a#-5---------5----5------------5-------5---------------5--5--|
f#-4---------4----4------------4-------4---------------4--4--|
c#-2---------2----4------------4-------6---------------6--4--|
g#----------------2------------2-------4---------------4--2--|
D#-----------------------------------------------------------|
   i'm not trying to, to tell you what i think that i deserve
   C#m7              Bsus4                 C#m7                   Bsus4
d#--------------------------------------------------------------------|
a#--5--------------5--5--------------5------5------------------5---5--|
f#--4--------------4--4--------------4------4------------------4---4--|
c#--6--------------6--4--------------4------6------------------6---4--|
g#--4--------------4--2--------------2------4------------------4---2--|
D#--------------------------------------------------------------------|
and all i ever wanted to was to feel alive and see through my own eyes
  E5  C#5 B5 C#5 A5               E5 C#5 B5 C#5 A5
d#-----------------------------------------------------------------|
a#-----------------------------------------------------------------|
f#------6-4----6-2-2222-22222-2222------6-4----6-2-2222-22222-2222-|
c#-2----6-4----6-2-2222-22222-2222-2----6-4----6-2-2222-22222-2222-|
g#-2----4-2----4-0-0000-00000-0000-2----4-2----4-0-0000-00000-0000-|
D#-0-----------------4-----4-------0-----------------4-----4-------|
     E5                          B5
I'm not saying that you have to
                             C#5      B5
Fully agree with where I'm coming from
     C#5                 B5
But what do I get? A perception check
C#5                 B5
I'd rather die by living alone

G#m                         A5
I don't wanna believe that this is all I need
G#m                          B5
I don't wanna believe that this is all

   E5        C#5 B5
d#------------------|
a#------------------|
f#------------6---4-|
c#--2---------6---4-|
g#--2---------4---2-|
D#--0---------------|
And I don't know how
  E5  C#5 B5 C#5 A5               E5 C#5 B5 C#5 A5
d#------------------------------------------------|
a#------------------------------------------------|
f#-6------2-----2-2-2-2----2--2--2--2----2-2-2-2--|
c#-6------2-----2-2-2-2----2--2--2--2----2-2-2-2--|
g#-4------0-----0-0-0-0----0--0--0--0----0-0-0-0--|
D#------------------4---------------4-------------|
  How to break this to you I'll try my best and
    C#5                      B5
I know it won't be easy for you to accept this
   A5                 B5
I can't, I won't live how you expected

          E5                          B5
Did you think that it would force me through
                             C#5      B5
Knowing the fact I've done nothing wrong
   C#5                 B5
Security's not what I'm aiming for
             C#5                          B5
I'd rather take a chance than give up on something more

G#m                         A5
I don't wanna believe that this is all I need
G#m                          B5
I don't wanna believe that this is all

  E5        C#5 B5
d#------------------|
a#------------------|
f#------------6---4-|
c#--2---------6---4-|
g#--2---------4---2-|
D#--0---------------|
And I don't know how
  E5  C#5 B5 C#5 A5
d#------------------------------------------------|
a#------------------------------------------------|
f#-6------2-----2-2-2-2----2--2--2--2----2-2-2-2--|
c#-6------2-----2-2-2-2----2--2--2--2----2-2-2-2--|
g#-4------0-----0-0-0-0----0--0--0--0----0-0-0-0--|
D#------------------4---------------4-------------|
  How to break this to you I'll try my best and
    C#5                      B5
I know it won't be easy for you to accept this
   A5                 B5
I can't, I won't live how you expected
  E5        C#5 B5
d#------------------|
a#------------------|
f#------------6---4-|
c#--2---------6---4-|
g#--2---------4---2-|
D#--0---------------|
And I don't know how
  E5  C#5 B5 C#5 A5
d#------------------------------------------------|
a#------------------------------------------------|
f#-6------2-----2-2-2-2----2--2--2--2----2-2-2-2--|
c#-6------2-----2-2-2-2----2--2--2--2----2-2-2-2--|
g#-4------0-----0-0-0-0----0--0--0--0----0-0-0-0--|
D#------------------4---------------4-------------|
  How to break this to you I'll try my best and
    C#5                      B5
I know it won't be easy for you to accept this
   A5
I can't, I won't live how you expected

   C#5  B5      G#5   A5      C#5   B5     G#5   A5
d#------------------------------------------------------|
a#------------------------------------------------------|
f#-6666--44--44---------------6666--44--44--------------|
c#-6666--44--44-6666--77--77--6666--44--44-6666--77--77-|
g#-4444--22--22-6666--77--77--4444--22--22-6666--77--77-|
D#--------------4444--55--55---------------4444--55--55-|
     C#5
And this doesn't feel
B5
  Much like a home
        G#5
And I'm trying my best
     A5
To find my way back

     C#5
And this doesn't feel
B5
  Much like a home
        G#5
And I'm trying my best
     A5              B5
to find my way back home

  E5        C#5 B5
d#------------------|
a#------------------|
f#------------6---4-|
c#--2---------6---4-|
g#--2---------4---2-|
D#--0---------------|
And I don't know how
  E5  C#5 B5 C#5 A5
d#------------------------------------------------|
a#------------------------------------------------|
f#-6------2-----2-2-2-2----2--2--2--2----2-2-2-2--|
c#-6------2-----2-2-2-2----2--2--2--2----2-2-2-2--|
g#-4------0-----0-0-0-0----0--0--0--0----0-0-0-0--|
D#------------------4---------------4-------------|
  How to break this to you I'll try my best and
    C#5                      B5
I know it won't be easy for you to accept this
   A5                 B5
I can't, I won't live how you expected

  E5        C#5 B5
d#------------------|
a#------------------|
f#------------6---4-|
c#--2---------6---4-|
g#--2---------4---2-|
D#--0---------------|
And if you could be
  E5  C#5 B5 C#5 A5
d#------------------------------------------------|
a#------------------------------------------------|
f#-6------2-----2-2-2-2----2--2--2--2----2-2-2-2--|
c#-6------2-----2-2-2-2----2--2--2--2----2-2-2-2--|
g#-4------0-----0-0-0-0----0--0--0--0----0-0-0-0--|
D#------------------4---------------4-------------|
   more   supportive than you have ever will but
    C#5                      B5
I know it won't be easy for you to accept this
   A5                 B5
I can't, I won't live how you expected

 C#5    B5     A5
d#--------------|
a#--------------|
f#-6-6664-444-2-|
c#-6-6664-444-2-|
g#-4-4442-222-0-|
D#--------------|
Добавлено: 27.02.2012
Другие материалы по этой песне:
  • Аккорды и текст

Страница создана 27.02.2012
http://primanota.ru/artist-vs-poet/gateway-chords.htm
Привет, Гость.
Предлагаем пройти революционный курс по гитаре.
Подарок от PrimaNota.Ru, забирай!