PrimaNota.ru - самый крупный в мире бесплатный архив песенных текстов, аккордов, табулатур и нот


Artillery - Terror Squad - текст песни, таба, видео

Регистрация Запомнить меня
Войти через:  Facebook Google Twitter Vk Yandex Mail.ru

Artillery - Terror Squad - текст песни, таба, видео

Печатать
Просмотров: 215
        Artillery
     - Terror Squad -
       Terror Squad

     tabbed by PelzR


Tuning: D (D G C F A D)


Well, this is not my best tab. There are some mistakes but overall it should be OK.
Corrections are welcome.


Intro 

D|-----------------|-----------------|---------------|-----------|
A|-----------------|-----------------|---------------|-----------|
F|-----------------|-----------------|---------------|-----------|
C|---0-2---2-3-----|-5-3-2---2-------|-0-2---2-3-----|-5-3-2---2-|
G|---0-2---2-3-----|-------5---5-3-2-|-0-2---2-3-----|-------5---|
D|-0-----0-----0-0-|-----------------|-----0-----0-0-|-----------|
   .     .     . .         . . . . .       .     . .

Pre-Verse A

D|-----------------|--------------------|
A|-----------------|--------------------|
F|-----------3-0-2-|--------------------|
C|-0-2-3-----3-0-2-|-----0-2-3-----2--2-|
G|-0-2-3-----------|-----0-2-3-----2--2-|
D|-------0-0-------|-0-0-------0-0------|
         . .         . .       . .

D|-----------------|-------------------------|
A|-----------------|-------------------------|
F|-----------3-0-2-|-------------------------|
C|-0-2-3-----3-0-2-|-----0-2-3---------------|
G|-0-2-3-----------|-----0-2-3---------------|
D|-------0-0-------|-0-0-------0-0-3-2-0-5-4-|
         . .         . .       . .     .


Pre-Verse B
                                                      2x
D|---------------------------|---------------------------|
A|---------------------------|---------------------------|
F|o--------------------------|--------------------------o|
C|o-2------4-----------6-5-5-|-2------4------5----7-9-9-o|
G|--0------2------4----4-3-3-|-0------2------3----5-7-7--|
D|-----0-0----0-0-2--0-------|----0-0----0-0----0--------|
      . .    . .    .            . .    . .    .

D|-----------------------------|---------------------------|
A|-----------------------------|---------------------------|
F|-----------------------------|---------------------------|
C|-9---------------7---11-9----|-9---------------7---------|
G|-7---------------5---9--7----|-7---------------5---6-5-5-|
D|---0-0-8p7p0-0-0---0------0-0|---0-0-8p7p0-0-0---0-4-3-3-|
     . .       . .   .      . .    . .       . .   .

D|-----------------------------|--------------------------|
A|-----------------------------|--------------------------|
F|-----------------------------|--------------------------|
C|-9---------------7---11-9----|-9------------------------|
G|-7---------------5---9--7----|-7------------------------|
D|---0-0-8p7p0-0-0---0------0-0|---0-0-8p7p0-0-0-5-5--7-7-|
     . .       . .   .      . .    . .       . . . .  .


Verse 

D|-----------------------------|---------------------------|
A|-----------------------------|---------------------------|
F|-----------------------------|---------------------------|
C|-9---------------7---11-9----|-9---------------7---------|
G|-7---------------5---9--7----|-7---------------5---6-5-5-|
D|---0-0-8p7p0-0-0---0------0-0|---0-0-8p7p0-0-0---0-4-3-3-|
     . .       . .   .      . .    . .       . .   .


Chorus
                                                   3x
D|--------|-----------------|-------|---------------|
A|--------|-----------------|-------|---------------|
F|o-------|-----------------|-------|--------------o|
C|o-7---9-|-----------------|-5---5-|--------------o|
G|--7---9-|-----------------|-5---5-|-2p0----2p0----|
D|--5---7-|-3-3-3-3-3-3-3-3-|-3---3-|-----0------0--|
            . . . . . . . .            

then

D|--------|-----------------|-------|---------|
A|--------|-----------------|-------|---------|
F|o-------|-----------------|-------|---------|
C|o-7---9-|-----------------|-5---5-|-8-7-6-5-|
G|--7---9-|-----------------|-5---5-|-8-7-6-5-|
D|--5---7-|-3-3-3-3-3-3-3-3-|-3---3-|-6-5-4-3-|
            . . . . . . . .   


Bridge A
                                               4x
D|--------------------------|--------------------|
A|--------------------------|--------------------|
F|o-------------------------|-------------------o| Guitar 1
C|o-5-3-2-------------------|-5-3-2-------------o|
G|--5-3-2-----0-2---0-2-----|-5-3-2-----2-3-2----|
D|--------0-0-----0-----0-0-|-------0-0-------3--|
          . .     .     . .         . .

                                               4x
D|--------------------------|--------------------|
A|--------------------------|--------------------|
F|o-------------------------|-------------------o| Guitar 2
C|o-5-3-2-----0-2---0-2-----|-5-3-2-----2-3-2---o|
G|--5-3-2-------------------|-5-3-2-----------3--|
D|--------0-0-----0-----0-0-|-------0-0----------|
          . .     .     . .         . .

then

D|----------------|
A|----------------|
F|----------------| not quite sure
C|----------------|
G|----------------|
D|-0-10s8s6s5s4s5-|
   .


Bridge B

D|-------------------------|-----------------------|
F|-------------------------|-----------------------|
C|-------------------------|-----------------------|
G|-------------------------|-----------------5---3-|
G|---2p0-2-3-2---2p0-2-3-5-|---2p0-2-3-2-3---3---1-|
D|-0-----------0-----------|-0-----------1-0---0---|
   .           .             .             .   .


Interlude A

D|-----------------|-----------------|
A|-----------------|-----------------|
F|-----------------|-----------------|
C|-----------------|-----------------|
G|-5-7-----5-7-----|-5-7-----8-7-----|
D|-----0-0-----0-0-|-----0-0-----0-0-|
       . .     . .       . .     . . 


Interlude B

D|-------------------------|-------------------------| also not
A|-------------------------|-------------------------| sure about this
F|-------------------------|-------------------------|  
C|-7-----7-9---------------|-7-----7-9---------------| the guitar
G|-5-----5-7-----5-----7-6-|-5-----5-7-----5-----7-8-| is buried under 
D|---0-0-----0-0-3-0-0-5-4-|---0-0-----0-0-3-0-0-5-6-| the solo
     . .     . .   . .         . .     . .   . .


Outro A

D|---------------|---------------|---------------|---------------|
A|---------------|---------------|---------------|---------------| also not
F|------------10-|---------------|------------10-|---------------| right
C|------------10-|---------------|------------10-|---------------|
G|-------------8-|-----5-7-5-----|-------------8-|-----------5-7-|
D|-0-0-0-0-0-0---|-0-0-------8-7-|-0-0-0-0-0-0---|-0-0-5-7-8-----|
   . . . . . .     . .             . . . . . .     . . 


Outro B

D|--------------|--------------|--------------|---------------|
A|--------------|--------------|--------------|---------------|
F|--------------|--------------|--------------|---------------|
C|-5----8s7-----|-5----8s7-----|-5----8s7-----|-5------2------|
G|-5----8s7-----|-5----8s7-----|-5----8s7-----|-5------2------|
D|-3--0-6s5-0-0-|-3--0-6s5-0-0-|-3--0-6s5-0-0-|-3--0-0-0--0-0-|
      .     . .      .     . .      .     . .      . .    . .


Outro C
                                                3x
D|------------|-----------|-----------|----------|
A|------------|-----------|-----------|----------|
F|o-----------|-----------|-----------|---------o|
C|o-5-3-2-----|-3-2-0-----|-2-0-------|---------o|
G|--------2-2-|-------0-0-|-----3-----|-----2-2--|
D|------------|-----------|-------3-3-|-1-0-0-0--|
                                            . .
then

D|-----------|-----------|-----------|--------|
A|-----------|-----------|-----------|--------|
F|-----------|-----------|-----------|--------|
C|-5-3-2-----|-3-2-0-----|-2-0-------|--------|
G|-------2-2-|-------0-0-|-----3-----|-5-2--2-|
D|-----------|-----------|-------3-3-|-3-0--0-|
               


Description:
------------
. -> palm mute
s -> slide
o
o -> repeat
p -> pull-off

                             
Riff Structure:
---------------
Intro       -> 4x
Pre-Verse A -> 2x
Pre-Verse B -> 1x
Verse       -> 4x
Chorus      -> 1x
Pre-Verse A -> 2x
Verse       -> 4x
Chorus      -> 4x
Bridge A    -> 1x
Bridge B    -> 4x
Interlude A -> 8x
Interlude B -> 6x
Pre-Verse A -> 2x
Verse       -> 4x
Chorus      -> 4x
Bridge A    -> 1x
Bridge B    -> 4x
Outro A     -> 2x
Outro B     -> 4x
Outro A     -> 2x
Outro B     -> 2x
Outro D     -> 1x
Добавлено: 07.03.2012
Другие материалы по этой песне:
  • Аккорды и текст

Страница создана 04.03.2012
http://primanota.ru/artillery/terror-squad-chords.htm
Привет, Гость.
Предлагаем пройти революционный курс по гитаре.
Подарок от PrimaNota.Ru, забирай!