PrimaNota.ru - самый крупный в мире бесплатный архив песенных текстов, аккордов, табулатур и нот


Artillery - By Inheritance - текст песни, таба, видео

Регистрация Запомнить меня
Войти через:  Facebook Google Twitter Vk Yandex Mail.ru

Artillery - By Inheritance - текст песни, таба, видео

Печатать
Просмотров: 202
Уроки эстрадного вокала в Санкт-Петербурге
(intro - acoustic)

|---------------------------------|---------------------------------|
|---------------------------------|---------------------------------|
|-------------------7-------------|-----------------9-8-------------|
|------7---9---10-------10---9---7|------7---9---10-----10-8--------|
|----7---7---7----7---7---/10--8--|----7---7---7------------10-8----|
|--0------------------------------|--0--------------------------10-8|

 (fill)

|-----------------|---------------------------------|
|-----------------|---------------------------------|
|------------0--0-|-------------------7-------------|
|2~~~~2--2--4--2--|------7---9---10-------10---9---7|
|2~~~~2--2-5--3---|----7---7---7----7---7---/10--8--|
|0~~~~0--0--------|--0------------------------------|

|------------------------------------------------|
|------------------------------------------------|
|------------------------------------------------|
|----/12/7~7/5~9/---------2-3-5-3-2h3h2h3h2h3h2h3|
|--7~/10/5~9/3~7/--0-2-3-5-----------------------|
|------------------------------------------------|



|------------------------------|
|------------------------------|
|------------------------------|
|------------------------------|
|--7h8p7-5h7p5-3h5p3-2h3p2-----|
|-------0-----0-----------0-1h4|


                                  Riff 1a
|----------------------------------------------------------------|
|----------------------------------------------------------------|
|----------------------------------------------------------------|
|----------------------2-0h2----------------5p2p0----------------|
|-------------54320-333------5320-0-320-530-------------------0h2|
|-000-320-530-------------------------------------2-333-3-543----|



|---------------------------------------------------------------|
|---------------------------------------------------------------|
|----------------------------------------------2----------------|
|-----------------------------------------4h5----5--5-4--5-4----|
|------------------320-530-750-530--2-222-----2--------------5-4|
|--000-320-530-750---------------------------------3----3-------|

  Variation for Riff 1b

|----------------------------------|
|----------------------------------|
|----------------------------------|
|--4-----5-----2---5-----4/5/4/5/7-|
|--2-----3-----4---3-----2/3/2/3/5-|
|----000---000--000--000-----------|







Riff 2a

|------------------------------------------------------------------|
|------------------------------------------------------------------|
|------------------------------------------------------------------|
|----------------5/4/5-----7---5/4---------------------------------|
|----------------3/2/3-----5---3/2-000-000-000-320-4/5---5/7---7/9-|
|--000-0-0-0-0-0-------000---0---------------------2/3-0-3/5-0-5/7-|

   Riff 2b

|-----------------------------------------------------------------|
|-----------------------------------------------------------------|
|----------------------------------------------2------------------|
|----------------2---2---4---2p0---------4h5-----5---5-4---5-4----|
|----------------3p0h3---5-------2-2-222-----2-----------------5-4|
|--000-0-0-0-0-0-------0---0-----------------------3-----3--------|
 Riff 2c

|---------------------------------------------------------------|
|---------------------------------------------------------------|
|--------------------5---4--------------------------------------|
|----------------2---7---5---4p2p0-4-----5-----4---5--4/5/4/5/7-|
|----------------3p0---0---0-------2-----3-----2---3--2/3/2/3/5-|
|--000-0-0-0-0-0---------------------000---000--000-------------|

   Riff 4

|----------------------------------------------------------------|
|----------------------------------------------------------------|
|----------------------------------------------------------------|
|----------4-5-----------4-5-3p2p0---------4-5-2-----------------|
|--------2-----3-------2-----------------2-------532---------320-|
|--2-222---------2-222-------------2-222-------------532-320-----|

  Riff 5

|------------------------------------------------------------------|
|------------------------------------------------------------------|
|------------------------------------------------------------------|
|-------------------5-5---7-----5----------------------------------|
|---3h5---2h3-------3-3---5-----3p0-3h5---2h3-------------------2--|
|-------2-----2-5-0-----0---0-0---------2-----2-5-333-2-0-5-3-2---3|

|-----------------------------------------------------------------|
|-----------------------------------------------------------------|
|------------------------------------------------------2-----4p2p0|
|-----------------5-5---7-----5------------------0-4-5---5-4------|
|-3h5---2h3-------3-3---5-----3p0-3h5---2h3-----------------------|
|-----2-----2-5-0-----0---0-0---------2-----2-5/------------------|

  Riff 6

|---------------------------------------------------------------|
|---------------------------------------------------------------|
|---------------------------------------------------------------|
|-----------------------------------------------2---4---5/4-----|
|-----------------------------------------------0---2---3/2-5/4-|
|---000-333-2220-3~-0-555-33220-3-0-0-333-222-0---0---0-----3/2-|

|--------------------------------------------------------------|
|--------------------------------------------------------------|
|--------------------------------------------------------------|
|-------------------------------------5---2---2-4-5------------|
|-------------------------------------7---3---0-2-3-0-2h3p2p0~-|
|-000-333-2220-0-3~-0-555-33220-3-0-0---0---0------------------|

Harmony to Riff 6

|---------------------------------------------------------------------|
|---------------------------------------------------------------------|
|----------------------------------7-9p7------------------------------|
|---/9-7--9-10-9p7--------/9-7--10-------9p7-----/9-7--9-10-9p7-------|
|------------------10-------------------------------------------10----|
|---------------------0-0--------------------0-0-------------------0-0|

|----------------------|
|----------------------|
|-/12-9~-------9-------|
|--------10-12---10-12-|
|----------------------|
|----------------------|

 Guitar Solo
|-------------------------------|
|-------------------------------|
|---------11----------11--------|
|--9~(11)~---9-9~(11)~---9~(11)~|
|-------------------------------|
|-------------------------------|

|---------------------------------------------------------------------------|
|---------------------------------------------------------------------------|
|-17p14h17h19p17p14h17h19p17p14h17h19p17p14h17h19~~(21)-14h17p14h17p14h17p14|
|---------------------------------------------------------------------------|
|---------------------------------------------------------------------------|
|---------------------------------------------------------------------------|

|---------------------------------------------------------|
|---------------------------------------------------------|
|----------0-21-19-18-0-17-15-14-0-14-15-17-19-17-15-14-0-|
|-16~~(18)------------------------------------------------|
|---------------------------------------------------------|
|---------------------------------------------------------|

|-----------------------------------|
|--0-21-19-18-0-17-15-14~15p14-15p14|
|-----------------------------------|
|-----------------------------------|
|-----------------------------------|
|-----------------------------------|

|------------------------------------------------------------------------------|
|----14h17-14----14h17-14----14h17-14----14-17~(19)-14h17p14h17p14h17p14h17p14/|
|-16~---------16~---------16~---------16---------------------------------------|
|------------------------------------------------------------------------------|
|------------------------------------------------------------------------------|
|------------------------------------------------------------------------------|

   End Riff

|------------------------------------------------------------------|
|------------------------------------------------------------------|
|----------------7~~-------------9~~--------------12~~-14~~-16~~---|
|----------------------------------------------------------------2-|
|----------------5~~-------------7~~--------------10~~-12~~-14~~-2-|
|---000-333-2220----000-333-2220-----000-333-2220----------------0-|

Добавлено: 04.03.2012
Другие материалы по этой песне:

Страница создана 04.03.2012
http://primanota.ru/artillery/by-inheritance-chords.htm
Привет, Гость.
Предлагаем пройти революционный курс по гитаре.
Подарок от PrimaNota.Ru, забирай!