PrimaNota.ru - самый крупный в мире бесплатный архив песенных текстов, аккордов, табулатур и нот


Artillery - Breaking Wheel - таба, видео

Регистрация Запомнить меня
Войти через:  Facebook Google Twitter Vk Yandex Mail.ru

Artillery - Breaking Wheel - таба, видео

Печатать
Просмотров: 187
-------------------------------------------------------------------------------
                         Artillery - The Breaking Wheel
-------------------------------------------------------------------------------
Tabbed by: David Bierhaus
Email: dbierhaus01@yahoo.com

Tuning: Drop D - E B G D A D

Part I - Play 12 times
e|-------------------------|
B|-------4-4-4-------------|
G|-------------3-----5-----|
D|-------------------------|
A|-3-3-3-----------6-------|
D|-------------------------|

Part II - Play 8 times
e|-----------------------------|
B|-----------------------------|
G|-----------------------------|
D|-------------------------1---|
A|-------------------------1---|
D|-0-0-0-0-0-0-0-0-3p0-2p0-1---|

Part III - (palm mute) Play twice
e|--------------------------------------------------------|
B|--------------------------------------------------------|
G|--------------------------------------------------------|
D|--------------------------------------------------------|
A|--------------------------------------------------------|
D|-5-5-5-8-8-8-7-7-7-10-10-10-9-9-9-12-12-12-11-11-11-17\-|

PART IV - Play 4 times
e|-----------------------------|
B|-----------------------------|
G|-----------------------------|
D|-----------------------------|
A|-----------------------------|
D|-2-2-2-2-2-2-2-2-5p2-4p2-3p2-|

Back to Part II - Play 4 times
Then back to Part III - Play wtwice

Part V - Play 5 times
e|-----------------------------|
B|-----------------------------|
G|-----------------------------|
D|-5-x-x-2-3-x-x-2-3-x-x-2-5-4-|
A|-5-x-x-2-3-x-x-2-3-x-x-0-3-2-|
D|-5-x-x-2-3-x-x-2-3-x-x-------|

Part VI
e|---------------------------------------|
B|---------------------------------------|
G|---------------------------------------|
D|-5-x-x-2-3-x-x-2-3-x-x-7-10-9-5-12-11--|
A|-5-x-x-2-3-x-x-2-3-x-x-7-10-9-5-12-11--|
D|-5-x-x-2-3-x-x-2-3-x-x-7-10-9-5-12-11--|

Then play Part V one time
Then part VI one more time
Back to part II and play 8 times
Then part III twice
Back to part IV four times
And again part II four times
Part III two more times, then:

e|-------------|
B|-------------|
G|-------------|
D|-5~~~~~~~~---|
A|-5~~~~~~~~---|
D|-5~~~~~~~~---|

Part VII - Play twice
e|----------------------------------------------------------------------------|
B|----------------------------------------------------------------------------|
G|----------------------------------------------------------------------------|
D|---5---5---5---8---8---8---11---11---11---7---7---7---8---8---8---3---3---3-|
A|----------------------------------------------------------------------------|
D|-3---3---3---6---6---6---9----9----9----5---5---5---6---6---6---1---1---1---|

e|-------------------------------------------------|
B|-------------------------------------------------|
G|---1-1---1-1---1-1-1-1-1-2-2-2-2-2-2-2-2-2-2-2-2-|
D|-3-----3-----3---3-3-3-3-0-0-0-0-0-0-0-0-0-0-0-0-|
A|-------------------------------------------------|
D|-------------------------------------------------|

Part VIII - Play 4 times
e|------------------------|
B|------------------------|
G|------------------------|
D|-5----2-3--2-3----2-5-5-|
A|-5----2-3--2-3----0-3-2-|
D|-5----2-3--2-3----------|

Back to Part VII - Play twice
Then Part VIII - Play 4 times
Part VII again - Play twice
Then go alllll the way back to Part I and play it 20 times
Then:

e|----------|
B|-4-4--4-4-|
G|-0-0--0-0-|
D|-0-0--0-0-|
A|-3-3--3-3-|
D|----------|

After that I have no idea, the song just kind of falls apart. I'm sure you can play 
in the scales above for the ending and it will sound good!


| /  slide up
| \  slide down
| h  hammer-on
| p  pull-off
| ~  vibrato
| +  harmonic
| x  Mute note
===============================================================================
Добавлено: 21.04.2012
Другие материалы по этой песне:

Страница создана 21.04.2012
http://primanota.ru/artillery/breaking-wheel-chords.htm
Привет, Гость.
Предлагаем пройти революционный курс по гитаре.
Подарок от PrimaNota.Ru, забирай!