PrimaNota.ru - самый крупный в мире бесплатный архив песенных текстов, аккордов, табулатур и нот


Artillery - Back In The Trash - текст песни, таба, видео

Регистрация Запомнить меня
Войти через:  Facebook Google Twitter Vk Yandex Mail.ru

Artillery - Back In The Trash - текст песни, таба, видео

Печатать
Просмотров: 271
This is the first solo. You rake the first 3 notes (forward sweep).

e----------------------17-----------------------------------------------|
b-------17-19-20p19p17----20-19-----------------------------------------|
g----18----------------------------------------19b21r19~----------------|
D-19----------------------------19-21-22p21p19----------17-19-21p19p17--|
A-----------------------------------------------------------------------|
E-----------------------------------------------------------------------|

e---------------------------------------17-20p19p17----17-20p19p17----17-|
b------------------------------17-19-20-------------20-------------20----|
g-17-------19~-17-16----16tr17-------------------------------------------|
D----21-17-----------19--------------------------------------------------|
A------------------------------------------------------------------------|
E------------------------------------------------------------------------|

e-20p19p17--------------------------------------------------15-19p17p15----15-|
b----------19/15----17h19----19h20---20/22-20-19~--15-17-19-------------19----|
g----------------17-------17-------X------------------------------------------|
D-----------------------------------------------------------------------------|
A-----------------------------------------------------------------------------|
E-----------------------------------------------------------------------------|

e-19p17p15----15-19p17p15----------20-19-17-19-17----17--------------------|
b----------19-------------19p17p15----------------20----20-19-20-19-20-19~-|
g--------------------------------------------------------------------------|
D--------------------------------------------------------------------------|
A--------------------------------------------------------------------------|
E--------------------------------------------------------------------------|

e-------------------------14-15-17-15-14tr15----------------------------------|
B-------------------16-17--------------------15-13-12-------------------------|
G----------14-16-17-----------------------------------14-12-11----------------|
D-14-16-17-----------------------------------------------------14-13----------|
A--------------------------------------------------------------------15-14-12-|
E-----------------------------------------------------------------------------|

e----------------------------------------------------------------------------|
b----------------------------------------------------------------------------|
g----------------------------------------------------------------------------|
D----------------------------------------------------------------------------|
A-15-14~---------------------------------------------------------------------|
E----------------------------------------------------------------------------|

Hope you all Enjoy!
p=Pull-off
h=Hammer-on
/=Slide
tr=Trill
~=Vibrato
X=Ghost note
Добавлено: 14.11.2013
Вам также может быть интересно:
Другие материалы по этой песне:

Страница создана 07.07.2012
http://primanota.ru/artillery/back-in-the-trash-chords.htm
Привет, Гость.
Предлагаем пройти революционный курс по гитаре.
Подарок от PrimaNota.Ru, забирай!