PrimaNota.ru - самый крупный в мире бесплатный архив песенных текстов, аккордов, табулатур и нот


Artificial Fear - The Walking Dead Theme - таба, видео

Регистрация Запомнить меня
Войти через:  Facebook Google Twitter Vk Yandex Mail.ru

Artificial Fear - The Walking Dead Theme - таба, видео

Печатать
Просмотров: 202
Уроки эстрадного вокала в Санкт-Петербурге
-------------------------------------------------------------------------------
           THE WALKIGN DEAD THEME (METALIZED) - Artificial Fear
-------------------------------------------------------------------------------

Theme written by Bear McCreary
Arranged and Performed by Mat Graham (YouTube: ArtificialFear)

Tabbed by: Håkon Sigurðsson (cjdabest)

From the following video: https://www.youtube.com/watch?v=9dbiumfxPe0

This is pretty much exactly what is played in the video, note for note. 
Tuning: D Tuning 


Guitar Solo at about 1:19 in the video. The Key is G Minor (A Minor in D Tuning)
|-------8-12p8-11p8-------------8-12p8----*----|-------8-12p8-11p8-------------------------------------|
|----10------------10--------10--------10/16~~-|----10-------------10----------------------------------|
|---9----------------9------9------------------|---9-----------------9-------------------------9-10-12-|
|-10------------------10--10-------------------|-10-------------------10---------7-9-10-9-10-12--------|
|-----------------------12---------------------|------------------------12-7-8-10----------------------|
|----------------------------------------------|-------------------------------------------------------|
*=In the video (post-recording), he accidentally slides to Fret 15 on String 2 (C) 
but the recording is at Fret 16 (C#)

|---------------------------------------------5-|-8p7p5h7p5---5-----------------------------------|
|-12b13r12--(12)p10----------15b17-15-13--------|-----------8---8-7-8-7-5-7p5---5-----------------|
|-------------------12/14~~--------------14~~---|-----------------------------8---8-7-5-----------|
|-----------------------------------------------|---------------------------------------7-5-------|
|-----------------------------------------------|-------------------------------------------7-5-3-|
|-----------------------------------------------|-------------------------------------------------|

|--------------------------------|--------------------------------------|----7h8p7--7-----------------------|
|--------------------------------|--------------------------------------|---------10-8/12~-12-13-15-13-12---|
|-------------------------7-9-10-|-9-7---/12--10-9-[10]~-[9]-7-9~-7-----|--9-----------------------------14-|
|--------------/7~--7-9-10-------|----10---------------------------10-9-|-7---------------------------------|
|-5b6r5-(5)b6--------------------|--------------------------------------|-----------------------------------|
|--------------------------------|--------------------------------------|-----------------------------------|

|--------------19b20--(20)r19p17--------------------------------------||--KEY---|
|-12-----------------------------18p17--------------------------------||-CHANGE-|
|----14/16-14~------------------------17-16--(16)\14------------------||-TO-Ebm-|
|----------------------------------------------------15p14------------||--------|
|----------------------------------------------------------15-14---12-||-11~----|
|---------------------------------------------------------------------||--------|

*=In the video (post-recording), he accidentally slides to Fret 15 on String 2 (C) 
but the recording is at Fret 16 (C#)

************************************
|  /   slide up
|  \   slide down
|  h   hammer-on
|  p   pull-off
|  ~   vibrato
|  b   Bend
|  r   Bend release
| [#]  Pinch Harmonic
************************************
Добавлено: 12.08.2015
Другие материалы по этой песне:
  • Аккорды и текст

Страница создана 12.08.2015
http://primanota.ru/artificial-fear/walking-dead-theme-chords.htm
Привет, Гость.
Предлагаем пройти революционный курс по гитаре.
Подарок от PrimaNota.Ru, забирай!