PrimaNota.ru - самый крупный в мире бесплатный архив песенных текстов, аккордов, табулатур и нот


Artifice - Stay Away - таба, видео

Регистрация Запомнить меня
Войти через:  Facebook Google Twitter Vk Yandex Mail.ru

Artifice - Stay Away - таба, видео

Печатать
Просмотров: 62
-------------------------------------------------------------------------------
                             Stay Away - Artifice
-------------------------------------------------------------------------------
Tabbed by: Sam Weaver
 (bludyguillotine)

Artifice: www.artificeofficial.com
www.facebook.com/ArtificeCamas

Key: 
*=Palm mute
\=Slide to note or chord
~=hold/sustain
p=pull off
h=hammer on

Tuning: E A D G B e
       Guitar #1 (intro)
e|---------------------------------------------------------------------------|
B|---------------------------------------------------------------------------|
G|---------------------------------------------------------------------------|
D|-------4---5---4------4-5-4----4-2-0---------------------------------------| x6
A|--*5-5*-*5*-*5*-5----------------------------------------------------------|
E|----------------*7-7*-----*2-2*--------------------------------------------|
        Guitar #2 (intro)
e|-----------------------------------------------------------------------------------|
B|-----------------------------------------------------------------------------------|
G|--44444444-----------44444444-----------44444444-----------44444444----------------|
D|--44444444-5555-4444-44444444-5555-4444-44444444-5555-4444-44444444-*555*-5-*444*-4|(Start after opening riff
A|--22222222-5555-4444-22222222-5555-4444-22222222-5555-4444-22222222-*555*-5-*444*-4|      plays twice)
E|-----------3333-2222----------3333-2222----------3333-2222----------*333*-3-*222*-2|
     Guitar #1 (verse)
e|---------------------------------------------------------------------------|
B|---------------------------------------------------------------------------|
G|--44444444-----------------------------------------------------------------|
D|--44444444-5555-4444-------------------------------------------------------| x4 
A|--22222222-5555-4444-------------------------------------------------------|    
E|-----------3333-2222-------------------------------------------------------|
     Guitar #2 (verse)
e|---------------------------------------------------------------------------|
B|---------------------------------------------------------------------------|
G|--44444444--------------44444444-77777777-99999999-------------------------|
D|--44444444-5555-4444----44444444-xxxxxxxx-xxxxxxxx-------------------------| x2
A|--22222222-5555-4444----22222222-55555555-77777777-------------------------|     
E|-----------3333-2222-------------------------------------------------------|
   Guitar #1 (chorus)
e|---------------------------------------------------------------------------|
B|---------------------------------------------------------------------------|
G|---------------------------------------------------------------------------|
D|--5~--5\9~--9\2~--2\4~-----5~--5\9~--9\2~--2\4-444-4-----------------------|
A|--5~--5\9~--9\2~--2\4~-----5~--5\9~--9\2~--2\4-444-4-----------------------|
E|--3~--3\7~--7\0~--0\2~-3h2-3~--3\7~--7\0~--0\2-222-2-----------------------|
     Guitar #2(chorus)
e|---------------------------------------------------------------------------|
B|---------------------------------------------------------------------------|
G|---------------------------------------------------------------------------|
D|--5~--5\9~-----------2~--2\4~---------5~--5\9~------------2~--2\4-444-4----|
A|--5~--5\9~-----------2~--2\4~---------5~--5\9~------------2~--2\4-444-4----|
E|--3~--3\7~-77-10-9-7-0~--0\2~-2-2-3h2-3~--3\7~-7-7-10-9-7-0~--0\2-222-2----|

Intro riff (played x4 rather than x6)

Verse

Chorus

Bridge//Solo Section: Guitar #1

e|-------------7h9h10p9p7--7-------7--7--7--14-10--14-10--14-10-14/15-14p12h14p12\10\9--|
B|-----------------------10-10-7h10-10-10--------12-----12------------------------------|
G|--0h2h4\6-4~--------------------------------------------------------------------------|
D|--------------------------------------------------------------------------------------|
A|--------------------------------------------------------------------------------------|
E|--------------------------------------------------------------------------------------|

e|-------------------------------14------10-14-10------10-14-10------10-14-10------10-14-10--|
B|--12-12-14-14------12-12-14-14------12---------12--12--------12--12--------12--12--------12|
G|--------------11-11---------------11-------------11------------11------------11------------|
D|-------------------------------------------------------------------------------------------|
A|-------------------------------------------------------------------------------------------|
E|-------------------------------------------------------------------------------------------|

e|--\17-15-14h15p14-12-14-12-10-12-10-9-10-9-----15-15-14-14-12-12-10-10-17-17-17-17-19~------|
B|------------------------------------------12-12---------------------------------------------|
G|--------------------------------------------------------------------------------------------|
D|--------------------------------------------------------------------------------------------|
A|--------------------------------------------------------------------------------------------|
E|--------------------------------------------------------------------------------------------|
 
Bridge Guitar #2
e|---------------------------------------------------------------------------|
B|---------------------------------------------------------------------------|
G|--44444444-----------------------------------------------------------------|
D|--44444444-5555-4444-------------------------------------------------------|
A|--22222222-5555-4444-------------------------------------------------------|
E|-----------3333-2222-------------------------------------------------------|

Intro riff played 4 times

************************************
Добавлено: 16.10.2015
Вам также может быть интересно:
Другие материалы по этой песне:
  • Аккорды и текст

Страница создана 16.10.2015
http://primanota.ru/artifice/stay-away-chords.htm
Привет, Гость.
Предлагаем пройти революционный курс по гитаре.
Подарок от PrimaNota.Ru, забирай!