PrimaNota.ru - самый крупный в мире бесплатный архив песенных текстов, аккордов, табулатур и нот


Artifice - Davy - таба, видео

Регистрация Запомнить меня
Войти через:  Facebook Google Twitter Vk Yandex Mail.ru

Artifice - Davy - таба, видео

Печатать
Просмотров: 52
-------------------------------------------------------------------------------
                             Davy - Artifice
-------------------------------------------------------------------------------
Tabbed by: bludyguillotine (Sam Weaver)

Find us/Like us at www.artificeofficial.com
             www.facebook.com/ArtificeCamas

Tuning: Half Step Down (Eb standard)

KEY:
b = bend
x = muted pluck
~ = Sustain
v = vibrato

   (Verse and Intro Riff)
e|---------------------------------------------------------------------------|
B|---------------------------------------------------------------------------|
G|---------------------------------------------------------------------------|
D|--------------------2--2---------------------------------------------------| (Light distortion low gain)
A|--4-4--4----7-7-7-7-2-2-2-4-4-4-4-4----------------------------------------|  For Intro Play x4
E|--0-2-2-2-0-5-5-5-5-0-----0-2-2-2-0----------------------------------------|  For Verse Play x8
   (Chorus)
e|--------------------------------------------------------------------------------|
B|--------------------------------------------------------------------------------|
G|--------------------------------------------------------------------------------|
D|--44444444-77777777-44444444-77777777-44444444-77777777-44444444-77777777-4~~~--| (HEAVY AS HELL DISTORTION)
A|--44444444-77777777-44444444-77777777-44444444-77777777-44444444-77777777-4~~~--|
E|--22222222-55555555-22222222-55555555-22222222-55555555-22222222-55555555-2~~---|

Verse
Chorus

SOLO:
e|--14-17-14--14---------14--------------------------------------------------|
B|----------17--17-14-17b--17-14-----------------------------14-17-14--------|
G|------------------------------16~-16-14--14-----------14-16----------------| (Throw up the Rhythm switch
D|---------------------------------------16--16-14-14-16---------------------|   and keep distortion HEAVY)
A|---------------------------------------------------------------------------|
E|---------------------------------------------------------------------------|

e|------------------------------------------------17-17b-17-14----14------------------------------------|
B|-------------------------------------------------------------17-17b-17-14---14------------------------|
G|------------------14v~-x-x-14-14--x-x-x-17--x-x--------------------------16-16b-16-14v---14-----------|
D|------------14-16----------16-16b-x-x-x-19b-x-x----------------------------------------16--16-14v-16--|
A|-------14-16------------------------------------------------------------------------------------------|
E|--14-17-----------------------------------------------------------------------------------------------|

e|-------------------------------------------------------------------------------|
B|--------------------------14--x-x-x-17-x-x-17b-17b~---17b----17-17~------------|
G|------------------14v~-16-16b-x-----19-----19b-19b~---19b-19b------------------|
D|------------14-16--------------------------------------------------------------|
A|-------14-16-------------------------------------------------------------------|
E|--14-17------------------------------------------------------------------------|

Silent Bridge (Except Vocals, Bass, Drum)

Verse #3
e|---------------------------------------------------------------------------|
B|---------------------------------------------------------------------------|
G|---------------------------------------------------------------------------|
D|--4-4---------7-7-----2-2---------4-4--------------------------------------|
A|--4-4-x-x-x-x-7-7-x-x-2-2-x-x-x-x-4-4-x-x----------------------------------|
E|--2-2-x-x-x-x-5-5-x-x-0-0-x-x-x-x-2-2-x-x----------------------------------|

Repeat till end


************************************
Добавлено: 16.10.2015
Вам также может быть интересно:
Другие материалы по этой песне:
  • Аккорды и текст

Страница создана 16.10.2015
http://primanota.ru/artifice/davy-chords.htm
Привет, Гость.
Предлагаем пройти революционный курс по гитаре.
Подарок от PrimaNota.Ru, забирай!