PrimaNota.ru - самый крупный в мире бесплатный архив песенных текстов, аккордов, табулатур и нот


Artifex Pereo - To Listen And Say Nothing - таба, видео

Регистрация Запомнить меня
Войти через:  Facebook Google Twitter Vk Yandex Mail.ru

Artifex Pereo - To Listen And Say Nothing - таба, видео

Печатать
Просмотров: 179
Уроки эстрадного вокала в Санкт-Петербурге
-------------------------------------------------------------------------------
                  TO LISTEN AND SAY NOTHING - Artifex Pereo
-------------------------------------------------------------------------------
Tabbed by: chapin2ga
E-mail: chapin2ga@gmail.com

Tuning: Drop C
Capo 3

D ------------0h2-2h3p2---|
A -------0h1h3------------|
F -0h2h4------------------|
C ------------------------| 5x
G ------------------------|
C ------------------------|

D -----------2h5-2h3p2----|
A ------0h2h4-------------|
F -0h2h4------------------|
C ------------------------|
G ------------------------|
C ------------------------|

D -----------0h2-2h3p2----|
A ------0h1h3-------------|
F -0h2h4------------------|
C ------------------------| 3x
G ------------------------|
C ------------------------|

D -----------2h5-2h3p2----|
A ------0h2h4-------------|
F -0h2h4------------------|
C ------------------------|
G ------------------------|
C ------------------------|

D -320--------------------|
A ----31000---------------|
F ---------20-------------|
C ------------------------| 3x
G ------------------------|
C ------------------------|

D -320------537777--------|
A ----310000--------------|
F ------------------------|
C ------------------------|
G ------------------------|
C ------------------------|


D -320--------------------|
A ----31000---------------|
F ---------20-------------|
C ------------------------| 3x
G ------------------------|
C ------------------------|

D -320------527777--------|
A ----310000--------------|
F ------------------------|
C ------------------------|
G ------------------------|
C ------------------------|

I apologize if any of this is incorrect, please feel free to post corrections. God Bless!

************************************
| h   hammer-on
| p   pull-off
************************************
Добавлено: 14.06.2015
Вам также может быть интересно:
Другие материалы по этой песне:
  • Аккорды и текст

Страница создана 14.06.2015
http://primanota.ru/artifex-pereo/to-listen-and-say-nothing-chords.htm
Привет, Гость.
Предлагаем пройти революционный курс по гитаре.
Подарок от PrimaNota.Ru, забирай!